ISO-10303-21;
HEADER;
/* Generated by software containing ST-Developer
 * from STEP Tools, Inc. (www.steptools.com) 
 */
/* OPTION: using custom schema-name function */

FILE_DESCRIPTION(
/* description */ (''),
/* implementation_level */ '2;1');

FILE_NAME(
/* name */ 'JS754050F1C.3Z4-HXT_Basic.stp',
/* time_stamp */ '2022-11-09T14:07:33+06:00',
/* author */ (''),
/* organization */ (''),
/* preprocessor_version */ 'ST-DEVELOPER v16.7',
/* originating_system */ 'SIEMENS PLM Software NX 12.0',
/* authorisation */ '');

FILE_SCHEMA (('AUTOMOTIVE_DESIGN { 1 0 10303 214 3 1 1 1 }'));
ENDSEC;

DATA;
#10=CONSTRUCTIVE_GEOMETRY_REPRESENTATION_RELATIONSHIP(
'supplemental geometry','',#34,#11);
#11=CONSTRUCTIVE_GEOMETRY_REPRESENTATION('supplemental geometry',(#190,
#191,#192),#307);
#12=GEOMETRICALLY_BOUNDED_WIREFRAME_SHAPE_REPRESENTATION(
'inpu232CC2E1284z-None',(#35),#307);
#13=PROPERTY_DEFINITION_REPRESENTATION(#17,#15);
#14=PROPERTY_DEFINITION_REPRESENTATION(#18,#16);
#15=REPRESENTATION('',(#19),#307);
#16=REPRESENTATION('',(#20),#307);
#17=PROPERTY_DEFINITION('pmi validation property','',#25);
#18=PROPERTY_DEFINITION('pmi validation property','',#25);
#19=VALUE_REPRESENTATION_ITEM('number of annotations',COUNT_MEASURE(0.));
#20=VALUE_REPRESENTATION_ITEM('number of views',COUNT_MEASURE(0.));
#21=SHAPE_REPRESENTATION_RELATIONSHIP('None',
'relationship between inpu232CC2E1284z-None and inpu232CC2E1284z-None',
#34,#23);
#22=SHAPE_REPRESENTATION_RELATIONSHIP('None',
'relationship between inpu232CC2E1284z-None and inpu232CC2E1284z-None',
#34,#12);
#23=ADVANCED_BREP_SHAPE_REPRESENTATION('inpu232CC2E1284z-None',(#47,#48),
#307);
#24=SHAPE_DEFINITION_REPRESENTATION(#25,#34);
#25=PRODUCT_DEFINITION_SHAPE('','',#26);
#26=PRODUCT_DEFINITION(' ','',#28,#27);
#27=PRODUCT_DEFINITION_CONTEXT('part definition',#33,'design');
#28=PRODUCT_DEFINITION_FORMATION_WITH_SPECIFIED_SOURCE(' ',' ',#30,
 .NOT_KNOWN.);
#29=PRODUCT_RELATED_PRODUCT_CATEGORY('part','',(#30));
#30=PRODUCT('inpu232CC2E1284z','inpu232CC2E1284z',' ',(#31));
#31=PRODUCT_CONTEXT(' ',#33,'mechanical');
#32=APPLICATION_PROTOCOL_DEFINITION('international standard',
'automotive_design',2010,#33);
#33=APPLICATION_CONTEXT(
'core data for automotive mechanical design processes');
#34=SHAPE_REPRESENTATION('inpu232CC2E1284z-None',(#189),#307);
#35=GEOMETRIC_CURVE_SET('None',(#256,#257,#258,#259,#154));
#36=VERTEX_LOOP('',#126);
#37=SURFACE_STYLE_USAGE(.BOTH.,#39);
#38=SURFACE_STYLE_USAGE(.BOTH.,#40);
#39=SURFACE_SIDE_STYLE('',(#41));
#40=SURFACE_SIDE_STYLE('',(#42));
#41=SURFACE_STYLE_FILL_AREA(#43);
#42=SURFACE_STYLE_FILL_AREA(#44);
#43=FILL_AREA_STYLE('',(#45));
#44=FILL_AREA_STYLE('',(#46));
#45=FILL_AREA_STYLE_COLOUR('',#187);
#46=FILL_AREA_STYLE_COLOUR('',#188);
#47=MANIFOLD_SOLID_BREP('NOCUT',#49);
#48=MANIFOLD_SOLID_BREP('CUT',#50);
#49=CLOSED_SHELL('',(#60,#61,#62,#63,#64,#65));
#50=CLOSED_SHELL('',(#66,#67,#68,#69));
#51=TOROIDAL_SURFACE('',#202,7.51500000000001,5.);
#52=CYLINDRICAL_SURFACE('',#200,2.51500000000001);
#53=CYLINDRICAL_SURFACE('',#203,3.);
#54=PLANE('',#196);
#55=PLANE('',#198);
#56=PLANE('',#210);
#57=FACE_OUTER_BOUND('',#90,.T.);
#58=FACE_OUTER_BOUND('',#91,.T.);
#59=FACE_OUTER_BOUND('',#103,.T.);
#60=ADVANCED_FACE('',(#74,#75),#70,.T.);
#61=ADVANCED_FACE('',(#57),#54,.T.);
#62=ADVANCED_FACE('',(#58),#55,.T.);
#63=ADVANCED_FACE('',(#76,#77),#52,.T.);
#64=ADVANCED_FACE('',(#78,#79),#51,.F.);
#65=ADVANCED_FACE('',(#80,#81),#53,.T.);
#66=ADVANCED_FACE('',(#82,#83),#71,.F.);
#67=ADVANCED_FACE('',(#84,#85),#72,.T.);
#68=ADVANCED_FACE('',(#86,#87),#73,.T.);
#69=ADVANCED_FACE('',(#59),#56,.F.);
#70=CONICAL_SURFACE('',#195,3.,45.);
#71=CONICAL_SURFACE('',#205,3.10862446895044E-15,85.9999999999999);
#72=CONICAL_SURFACE('',#207,2.44499999999999,44.9999999999998);
#73=CONICAL_SURFACE('',#209,2.5,0.010000000000002);
#74=FACE_BOUND('',#88,.T.);
#75=FACE_BOUND('',#89,.T.);
#76=FACE_BOUND('',#92,.T.);
#77=FACE_BOUND('',#93,.T.);
#78=FACE_BOUND('',#94,.T.);
#79=FACE_BOUND('',#95,.T.);
#80=FACE_BOUND('',#96,.T.);
#81=FACE_BOUND('',#97,.T.);
#82=FACE_BOUND('',#98,.T.);
#83=FACE_BOUND('',#36,.T.);
#84=FACE_BOUND('',#99,.T.);
#85=FACE_BOUND('',#100,.T.);
#86=FACE_BOUND('',#101,.T.);
#87=FACE_BOUND('',#102,.T.);
#88=EDGE_LOOP('',(#104));
#89=EDGE_LOOP('',(#105));
#90=EDGE_LOOP('',(#106));
#91=EDGE_LOOP('',(#107));
#92=EDGE_LOOP('',(#108));
#93=EDGE_LOOP('',(#109));
#94=EDGE_LOOP('',(#110));
#95=EDGE_LOOP('',(#111));
#96=EDGE_LOOP('',(#112));
#97=EDGE_LOOP('',(#113));
#98=EDGE_LOOP('',(#114));
#99=EDGE_LOOP('',(#115));
#100=EDGE_LOOP('',(#116));
#101=EDGE_LOOP('',(#117));
#102=EDGE_LOOP('',(#118));
#103=EDGE_LOOP('',(#119));
#104=ORIENTED_EDGE('',*,*,#129,.T.);
#105=ORIENTED_EDGE('',*,*,#130,.F.);
#106=ORIENTED_EDGE('',*,*,#129,.F.);
#107=ORIENTED_EDGE('',*,*,#131,.T.);
#108=ORIENTED_EDGE('',*,*,#132,.T.);
#109=ORIENTED_EDGE('',*,*,#131,.F.);
#110=ORIENTED_EDGE('',*,*,#133,.T.);
#111=ORIENTED_EDGE('',*,*,#132,.F.);
#112=ORIENTED_EDGE('',*,*,#130,.T.);
#113=ORIENTED_EDGE('',*,*,#133,.F.);
#114=ORIENTED_EDGE('',*,*,#134,.T.);
#115=ORIENTED_EDGE('',*,*,#134,.F.);
#116=ORIENTED_EDGE('',*,*,#135,.T.);
#117=ORIENTED_EDGE('',*,*,#135,.F.);
#118=ORIENTED_EDGE('',*,*,#136,.T.);
#119=ORIENTED_EDGE('',*,*,#136,.F.);
#120=VERTEX_POINT('',#280);
#121=VERTEX_POINT('',#282);
#122=VERTEX_POINT('',#286);
#123=VERTEX_POINT('',#289);
#124=VERTEX_POINT('',#292);
#125=VERTEX_POINT('',#296);
#126=VERTEX_POINT('',#297);
#127=VERTEX_POINT('',#300);
#128=VERTEX_POINT('',#303);
#129=EDGE_CURVE('',#120,#120,#137,.T.);
#130=EDGE_CURVE('',#121,#121,#138,.T.);
#131=EDGE_CURVE('',#122,#122,#139,.T.);
#132=EDGE_CURVE('',#123,#123,#140,.T.);
#133=EDGE_CURVE('',#124,#124,#141,.T.);
#134=EDGE_CURVE('',#125,#125,#142,.T.);
#135=EDGE_CURVE('',#127,#127,#143,.T.);
#136=EDGE_CURVE('',#128,#128,#144,.T.);
#137=CIRCLE('',#193,2.5);
#138=CIRCLE('',#194,3.);
#139=CIRCLE('',#197,2.51500000000001);
#140=CIRCLE('',#199,2.51500000000001);
#141=CIRCLE('',#201,3.);
#142=CIRCLE('',#204,2.44499999999999);
#143=CIRCLE('',#206,2.5);
#144=CIRCLE('',#208,2.49878786882218);
#145=CURVE_STYLE('',#150,POSITIVE_LENGTH_MEASURE(0.18),#149);
#146=CURVE_STYLE('',#151,POSITIVE_LENGTH_MEASURE(0.18),#186);
#147=CURVE_STYLE('',#152,POSITIVE_LENGTH_MEASURE(0.18),#186);
#148=CURVE_STYLE('',#153,POSITIVE_LENGTH_MEASURE(0.18),#186);
#149=DRAUGHTING_PRE_DEFINED_COLOUR('blue');
#150=DRAUGHTING_PRE_DEFINED_CURVE_FONT('continuous');
#151=DRAUGHTING_PRE_DEFINED_CURVE_FONT('continuous');
#152=DRAUGHTING_PRE_DEFINED_CURVE_FONT('continuous');
#153=DRAUGHTING_PRE_DEFINED_CURVE_FONT('continuous');
#154=B_SPLINE_CURVE_WITH_KNOTS('CUTTING PART LINE',3,(#260,#261,#262,#263,
#264,#265,#266,#267,#268,#269,#270,#271,#272,#273,#274,#275),
 .UNSPECIFIED.,.T.,.F.,(1,3,3,3,3,3,3,1),(-0.00413698162434695,0.,0.130359887889936,
0.493575793234614,0.62647894906834,0.995863018375653,1.,1.13035988788994),
 .UNSPECIFIED.);
#155=PRESENTATION_LAYER_ASSIGNMENT('1','Layer 1',(#256,#257,#258,#259,#154,
#190,#191,#192,#47));
#156=PRESENTATION_LAYER_ASSIGNMENT('3','Layer 3',(#48));
#157=STYLED_ITEM('',(#167),#256);
#158=STYLED_ITEM('',(#168),#257);
#159=STYLED_ITEM('',(#169),#258);
#160=STYLED_ITEM('',(#170),#259);
#161=STYLED_ITEM('',(#171),#154);
#162=STYLED_ITEM('',(#172),#190);
#163=STYLED_ITEM('',(#173),#191);
#164=STYLED_ITEM('',(#174),#192);
#165=STYLED_ITEM('',(#175),#47);
#166=STYLED_ITEM('',(#176),#48);
#167=PRESENTATION_STYLE_ASSIGNMENT((#177));
#168=PRESENTATION_STYLE_ASSIGNMENT((#178));
#169=PRESENTATION_STYLE_ASSIGNMENT((#179));
#170=PRESENTATION_STYLE_ASSIGNMENT((#180));
#171=PRESENTATION_STYLE_ASSIGNMENT((#145));
#172=PRESENTATION_STYLE_ASSIGNMENT((#146));
#173=PRESENTATION_STYLE_ASSIGNMENT((#147));
#174=PRESENTATION_STYLE_ASSIGNMENT((#148));
#175=PRESENTATION_STYLE_ASSIGNMENT((#37));
#176=PRESENTATION_STYLE_ASSIGNMENT((#38));
#177=POINT_STYLE('',#181,POSITIVE_LENGTH_MEASURE(3.),#185);
#178=POINT_STYLE('',#182,POSITIVE_LENGTH_MEASURE(3.),#186);
#179=POINT_STYLE('',#183,POSITIVE_LENGTH_MEASURE(3.),#186);
#180=POINT_STYLE('',#184,POSITIVE_LENGTH_MEASURE(3.),#186);
#181=PRE_DEFINED_POINT_MARKER_SYMBOL('plus');
#182=PRE_DEFINED_POINT_MARKER_SYMBOL('plus');
#183=PRE_DEFINED_POINT_MARKER_SYMBOL('plus');
#184=PRE_DEFINED_POINT_MARKER_SYMBOL('plus');
#185=COLOUR_RGB('Medium Royal',0.2,0.4,0.8);
#186=COLOUR_RGB('Pale Maroon',0.811749446860456,0.603921568627451,0.611749446860456);
#187=COLOUR_RGB('Medium Gray',0.490196078431373,0.490196078431373,0.490196078431373);
#188=COLOUR_RGB('Light Gray',0.8,0.8,0.8);
#189=AXIS2_PLACEMENT_3D('',#255,#211,#212);
#190=AXIS2_PLACEMENT_3D('PCS',#276,#213,#214);
#191=AXIS2_PLACEMENT_3D('MCS',#277,#215,#216);
#192=AXIS2_PLACEMENT_3D('CIP',#278,#217,#218);
#193=AXIS2_PLACEMENT_3D('',#279,#219,#220);
#194=AXIS2_PLACEMENT_3D('',#281,#221,#222);
#195=AXIS2_PLACEMENT_3D('',#283,#223,#224);
#196=AXIS2_PLACEMENT_3D('',#284,#225,#226);
#197=AXIS2_PLACEMENT_3D('',#285,#227,#228);
#198=AXIS2_PLACEMENT_3D('',#287,#229,#230);
#199=AXIS2_PLACEMENT_3D('',#288,#231,#232);
#200=AXIS2_PLACEMENT_3D('',#290,#233,#234);
#201=AXIS2_PLACEMENT_3D('',#291,#235,#236);
#202=AXIS2_PLACEMENT_3D('',#293,#237,#238);
#203=AXIS2_PLACEMENT_3D('',#294,#239,#240);
#204=AXIS2_PLACEMENT_3D('',#295,#241,#242);
#205=AXIS2_PLACEMENT_3D('',#298,#243,#244);
#206=AXIS2_PLACEMENT_3D('',#299,#245,#246);
#207=AXIS2_PLACEMENT_3D('',#301,#247,#248);
#208=AXIS2_PLACEMENT_3D('',#302,#249,#250);
#209=AXIS2_PLACEMENT_3D('',#304,#251,#252);
#210=AXIS2_PLACEMENT_3D('',#305,#253,#254);
#211=DIRECTION('',(0.,0.,1.));
#212=DIRECTION('',(1.,0.,0.));
#213=DIRECTION('',(0.,0.,1.));
#214=DIRECTION('',(1.,0.,0.));
#215=DIRECTION('',(0.,0.,1.));
#216=DIRECTION('',(1.,0.,0.));
#217=DIRECTION('',(0.,0.,1.));
#218=DIRECTION('',(1.,0.,0.));
#219=DIRECTION('',(0.,0.,-1.));
#220=DIRECTION('',(-1.,0.,0.));
#221=DIRECTION('',(0.,0.,-1.));
#222=DIRECTION('',(-1.,0.,0.));
#223=DIRECTION('',(0.,0.,-1.));
#224=DIRECTION('',(-1.,0.,-2.76725579418035E-17));
#225=DIRECTION('',(0.,0.,1.));
#226=DIRECTION('',(1.,0.,0.));
#227=DIRECTION('',(0.,0.,-1.));
#228=DIRECTION('',(-1.,0.,0.));
#229=DIRECTION('',(0.,0.,-1.));
#230=DIRECTION('',(-1.,0.,0.));
#231=DIRECTION('',(0.,0.,-1.));
#232=DIRECTION('',(-1.,0.,0.));
#233=DIRECTION('',(0.,0.,-1.));
#234=DIRECTION('',(-1.,0.,0.));
#235=DIRECTION('',(0.,0.,-1.));
#236=DIRECTION('',(-1.,0.,0.));
#237=DIRECTION('',(0.,0.,-1.));
#238=DIRECTION('',(-1.,0.,0.));
#239=DIRECTION('',(0.,0.,-1.));
#240=DIRECTION('',(-1.,0.,0.));
#241=DIRECTION('',(0.,0.,-1.));
#242=DIRECTION('',(-1.,0.,0.));
#243=DIRECTION('',(0.,0.,-1.));
#244=DIRECTION('',(-1.,0.,-7.27822093671755E-18));
#245=DIRECTION('',(0.,0.,-1.));
#246=DIRECTION('',(-1.,0.,0.));
#247=DIRECTION('',(0.,0.,1.));
#248=DIRECTION('',(1.,0.,-1.21134469540351E-17));
#249=DIRECTION('',(0.,0.,-1.));
#250=DIRECTION('',(-1.,0.,0.));
#251=DIRECTION('',(0.,0.,-1.));
#252=DIRECTION('',(-1.,0.,-3.5673440478729E-14));
#253=DIRECTION('',(0.,0.,-1.));
#254=DIRECTION('',(-1.,0.,0.));
#255=CARTESIAN_POINT('',(0.,0.,0.));
#256=CARTESIAN_POINT('CRP',(-2.5,0.,-14.));
#257=CARTESIAN_POINT('',(0.,0.,36.));
#258=CARTESIAN_POINT('',(0.,0.,0.));
#259=CARTESIAN_POINT('',(0.,0.,-14.));
#260=CARTESIAN_POINT('',(-2.44499999999999,0.,-14.));
#261=CARTESIAN_POINT('',(-1.63,0.,-13.943009648266));
#262=CARTESIAN_POINT('',(-0.814999999999999,0.,-13.8860192965321));
#263=CARTESIAN_POINT('',(-1.55431223447522E-15,0.,-13.8290289447981));
#264=CARTESIAN_POINT('',(0.,0.,-11.5526859631987));
#265=CARTESIAN_POINT('',(0.,0.,-9.27634298159937));
#266=CARTESIAN_POINT('',(0.,0.,-7.));
#267=CARTESIAN_POINT('',(-0.832929289607393,0.,-7.));
#268=CARTESIAN_POINT('',(-1.66585857921479,0.,-7.));
#269=CARTESIAN_POINT('',(-2.49878786882218,0.,-7.));
#270=CARTESIAN_POINT('',(-2.49919191254812,0.,-9.31500000000003));
#271=CARTESIAN_POINT('',(-2.49959595627406,0.,-11.6300000000001));
#272=CARTESIAN_POINT('',(-2.50000000000008,0.,-13.9449999999999));
#273=CARTESIAN_POINT('',(-2.48166666666678,0.,-13.9633333333332));
#274=CARTESIAN_POINT('',(-2.46333333333338,0.,-13.9816666666666));
#275=CARTESIAN_POINT('',(-2.44499999999999,0.,-14.));
#276=CARTESIAN_POINT('',(0.,0.,36.));
#277=CARTESIAN_POINT('',(0.,0.,0.));
#278=CARTESIAN_POINT('',(0.,0.,-14.));
#279=CARTESIAN_POINT('',(0.,0.,36.));
#280=CARTESIAN_POINT('',(-2.5,0.,36.));
#281=CARTESIAN_POINT('',(0.,0.,35.5));
#282=CARTESIAN_POINT('',(-3.,0.,35.5));
#283=CARTESIAN_POINT('',(0.,0.,35.5));
#284=CARTESIAN_POINT('',(2.5,0.,36.));
#285=CARTESIAN_POINT('',(0.,0.,-7.));
#286=CARTESIAN_POINT('',(-2.51500000000001,0.,-7.));
#287=CARTESIAN_POINT('',(2.49878786882218,0.,-7.));
#288=CARTESIAN_POINT('',(0.,0.,-4.));
#289=CARTESIAN_POINT('',(-2.51500000000001,0.,-4.));
#290=CARTESIAN_POINT('',(0.,0.,0.));
#291=CARTESIAN_POINT('',(0.,0.,-1.85179726282645));
#292=CARTESIAN_POINT('',(-3.,0.,-1.85179726282645));
#293=CARTESIAN_POINT('',(0.,0.,-4.));
#294=CARTESIAN_POINT('',(0.,0.,0.));
#295=CARTESIAN_POINT('',(0.,0.,-14.));
#296=CARTESIAN_POINT('',(-2.44499999999999,0.,-14.));
#297=CARTESIAN_POINT('',(0.,0.,-13.8290289447981));
#298=CARTESIAN_POINT('',(0.,0.,-13.8290289447981));
#299=CARTESIAN_POINT('',(0.,0.,-13.945));
#300=CARTESIAN_POINT('',(-2.5,0.,-13.945));
#301=CARTESIAN_POINT('',(0.,0.,-14.));
#302=CARTESIAN_POINT('',(0.,0.,-7.));
#303=CARTESIAN_POINT('',(-2.49878786882218,0.,-7.));
#304=CARTESIAN_POINT('',(0.,0.,-13.945));
#305=CARTESIAN_POINT('',(0.,0.,-7.));
#306=MECHANICAL_DESIGN_GEOMETRIC_PRESENTATION_REPRESENTATION('',(#157,#158,
#159,#160,#161,#162,#163,#164,#165,#166),#307);
#307=(
GEOMETRIC_REPRESENTATION_CONTEXT(3)
GLOBAL_UNCERTAINTY_ASSIGNED_CONTEXT((#308))
GLOBAL_UNIT_ASSIGNED_CONTEXT((#314,#310,#309))
REPRESENTATION_CONTEXT('JS754050F1C','TOP_LEVEL_ASSEMBLY_PART')
);
#308=UNCERTAINTY_MEASURE_WITH_UNIT(LENGTH_MEASURE(2.E-5),#314,
'DISTANCE_ACCURACY_VALUE','Maximum Tolerance applied to model');
#309=(
NAMED_UNIT(*)
SI_UNIT($,.STERADIAN.)
SOLID_ANGLE_UNIT()
);
#310=(
CONVERSION_BASED_UNIT('DEGREE',#312)
NAMED_UNIT(#311)
PLANE_ANGLE_UNIT()
);
#311=DIMENSIONAL_EXPONENTS(0.,0.,0.,0.,0.,0.,0.);
#312=PLANE_ANGLE_MEASURE_WITH_UNIT(PLANE_ANGLE_MEASURE(0.0174532925),#313);
#313=(
NAMED_UNIT(*)
PLANE_ANGLE_UNIT()
SI_UNIT($,.RADIAN.)
);
#314=(
LENGTH_UNIT()
NAMED_UNIT(*)
SI_UNIT(.MILLI.,.METRE.)
);
ENDSEC;
END-ISO-10303-21;
