ISO-10303-21;
HEADER;
/* Generated by software containing ST-Developer
 * from STEP Tools, Inc. (www.steptools.com) 
 */
/* OPTION: using custom schema-name function */

FILE_DESCRIPTION(
/* description */ (''),
/* implementation_level */ '2;1');

FILE_NAME(
/* name */ 'JS754030F1R020.0Z4-HXT_Basic.stp',
/* time_stamp */ '2022-12-01T14:56:21+05:00',
/* author */ (''),
/* organization */ (''),
/* preprocessor_version */ 'ST-DEVELOPER v16.7',
/* originating_system */ 'SIEMENS PLM Software NX 12.0',
/* authorisation */ '');

FILE_SCHEMA (('AUTOMOTIVE_DESIGN { 1 0 10303 214 3 1 1 1 }'));
ENDSEC;

DATA;
#10=CONSTRUCTIVE_GEOMETRY_REPRESENTATION_RELATIONSHIP(
'supplemental geometry','',#34,#11);
#11=CONSTRUCTIVE_GEOMETRY_REPRESENTATION('supplemental geometry',(#187,
#188,#189),#303);
#12=GEOMETRICALLY_BOUNDED_WIREFRAME_SHAPE_REPRESENTATION(
'inpu1E10E91E6yc2-None',(#35),#303);
#13=PROPERTY_DEFINITION_REPRESENTATION(#17,#15);
#14=PROPERTY_DEFINITION_REPRESENTATION(#18,#16);
#15=REPRESENTATION('',(#19),#303);
#16=REPRESENTATION('',(#20),#303);
#17=PROPERTY_DEFINITION('pmi validation property','',#25);
#18=PROPERTY_DEFINITION('pmi validation property','',#25);
#19=VALUE_REPRESENTATION_ITEM('number of annotations',COUNT_MEASURE(0.));
#20=VALUE_REPRESENTATION_ITEM('number of views',COUNT_MEASURE(0.));
#21=SHAPE_REPRESENTATION_RELATIONSHIP('None',
'relationship between inpu1E10E91E6yc2-None and inpu1E10E91E6yc2-None',
#34,#23);
#22=SHAPE_REPRESENTATION_RELATIONSHIP('None',
'relationship between inpu1E10E91E6yc2-None and inpu1E10E91E6yc2-None',
#34,#12);
#23=ADVANCED_BREP_SHAPE_REPRESENTATION('inpu1E10E91E6yc2-None',(#46,#47),
#303);
#24=SHAPE_DEFINITION_REPRESENTATION(#25,#34);
#25=PRODUCT_DEFINITION_SHAPE('','',#26);
#26=PRODUCT_DEFINITION(' ','',#28,#27);
#27=PRODUCT_DEFINITION_CONTEXT('part definition',#33,'design');
#28=PRODUCT_DEFINITION_FORMATION_WITH_SPECIFIED_SOURCE(' ',' ',#30,
 .NOT_KNOWN.);
#29=PRODUCT_RELATED_PRODUCT_CATEGORY('part','',(#30));
#30=PRODUCT('inpu1E10E91E6yc2','inpu1E10E91E6yc2',' ',(#31));
#31=PRODUCT_CONTEXT(' ',#33,'mechanical');
#32=APPLICATION_PROTOCOL_DEFINITION('international standard',
'automotive_design',2010,#33);
#33=APPLICATION_CONTEXT(
'core data for automotive mechanical design processes');
#34=SHAPE_REPRESENTATION('inpu1E10E91E6yc2-None',(#186),#303);
#35=GEOMETRIC_CURVE_SET('None',(#253,#254,#255,#256,#151));
#36=SURFACE_STYLE_USAGE(.BOTH.,#38);
#37=SURFACE_STYLE_USAGE(.BOTH.,#39);
#38=SURFACE_SIDE_STYLE('',(#40));
#39=SURFACE_SIDE_STYLE('',(#41));
#40=SURFACE_STYLE_FILL_AREA(#42);
#41=SURFACE_STYLE_FILL_AREA(#43);
#42=FILL_AREA_STYLE('',(#44));
#43=FILL_AREA_STYLE('',(#45));
#44=FILL_AREA_STYLE_COLOUR('',#184);
#45=FILL_AREA_STYLE_COLOUR('',#185);
#46=MANIFOLD_SOLID_BREP('NOCUT',#48);
#47=MANIFOLD_SOLID_BREP('CUT',#49);
#48=CLOSED_SHELL('',(#68,#69,#70,#71,#72,#73));
#49=CLOSED_SHELL('',(#74,#75,#76,#77));
#50=TOROIDAL_SURFACE('',#197,6.52499999999998,5.);
#51=TOROIDAL_SURFACE('',#206,1.29999999999998,0.200000000000003);
#52=CYLINDRICAL_SURFACE('',#195,2.99999999999996);
#53=CYLINDRICAL_SURFACE('',#199,1.52499999999998);
#54=CYLINDRICAL_SURFACE('',#204,1.49999999999999);
#55=CONICAL_SURFACE('',#193,3.,45.);
#56=FACE_BOUND('',#87,.T.);
#57=FACE_BOUND('',#88,.T.);
#58=FACE_BOUND('',#89,.T.);
#59=FACE_BOUND('',#90,.T.);
#60=FACE_BOUND('',#91,.T.);
#61=FACE_BOUND('',#92,.T.);
#62=FACE_BOUND('',#93,.T.);
#63=FACE_BOUND('',#94,.T.);
#64=FACE_BOUND('',#97,.T.);
#65=FACE_BOUND('',#98,.T.);
#66=FACE_BOUND('',#99,.T.);
#67=FACE_BOUND('',#100,.T.);
#68=ADVANCED_FACE('',(#82),#78,.T.);
#69=ADVANCED_FACE('',(#56,#57),#55,.T.);
#70=ADVANCED_FACE('',(#58,#59),#52,.T.);
#71=ADVANCED_FACE('',(#60,#61),#50,.F.);
#72=ADVANCED_FACE('',(#62,#63),#53,.T.);
#73=ADVANCED_FACE('',(#83),#79,.T.);
#74=ADVANCED_FACE('',(#84),#80,.F.);
#75=ADVANCED_FACE('',(#64,#65),#54,.T.);
#76=ADVANCED_FACE('',(#66,#67),#51,.T.);
#77=ADVANCED_FACE('',(#85),#81,.T.);
#78=PLANE('',#191);
#79=PLANE('',#200);
#80=PLANE('',#202);
#81=PLANE('',#207);
#82=FACE_OUTER_BOUND('',#86,.T.);
#83=FACE_OUTER_BOUND('',#95,.T.);
#84=FACE_OUTER_BOUND('',#96,.T.);
#85=FACE_OUTER_BOUND('',#101,.T.);
#86=EDGE_LOOP('',(#102));
#87=EDGE_LOOP('',(#103));
#88=EDGE_LOOP('',(#104));
#89=EDGE_LOOP('',(#105));
#90=EDGE_LOOP('',(#106));
#91=EDGE_LOOP('',(#107));
#92=EDGE_LOOP('',(#108));
#93=EDGE_LOOP('',(#109));
#94=EDGE_LOOP('',(#110));
#95=EDGE_LOOP('',(#111));
#96=EDGE_LOOP('',(#112));
#97=EDGE_LOOP('',(#113));
#98=EDGE_LOOP('',(#114));
#99=EDGE_LOOP('',(#115));
#100=EDGE_LOOP('',(#116));
#101=EDGE_LOOP('',(#117));
#102=ORIENTED_EDGE('',*,*,#126,.F.);
#103=ORIENTED_EDGE('',*,*,#126,.T.);
#104=ORIENTED_EDGE('',*,*,#127,.F.);
#105=ORIENTED_EDGE('',*,*,#127,.T.);
#106=ORIENTED_EDGE('',*,*,#128,.F.);
#107=ORIENTED_EDGE('',*,*,#128,.T.);
#108=ORIENTED_EDGE('',*,*,#129,.F.);
#109=ORIENTED_EDGE('',*,*,#129,.T.);
#110=ORIENTED_EDGE('',*,*,#130,.F.);
#111=ORIENTED_EDGE('',*,*,#130,.T.);
#112=ORIENTED_EDGE('',*,*,#131,.T.);
#113=ORIENTED_EDGE('',*,*,#131,.F.);
#114=ORIENTED_EDGE('',*,*,#132,.F.);
#115=ORIENTED_EDGE('',*,*,#132,.T.);
#116=ORIENTED_EDGE('',*,*,#133,.F.);
#117=ORIENTED_EDGE('',*,*,#133,.T.);
#118=VERTEX_POINT('',#277);
#119=VERTEX_POINT('',#280);
#120=VERTEX_POINT('',#283);
#121=VERTEX_POINT('',#286);
#122=VERTEX_POINT('',#289);
#123=VERTEX_POINT('',#293);
#124=VERTEX_POINT('',#296);
#125=VERTEX_POINT('',#299);
#126=EDGE_CURVE('',#118,#118,#134,.T.);
#127=EDGE_CURVE('',#119,#119,#135,.T.);
#128=EDGE_CURVE('',#120,#120,#136,.T.);
#129=EDGE_CURVE('',#121,#121,#137,.T.);
#130=EDGE_CURVE('',#122,#122,#138,.T.);
#131=EDGE_CURVE('',#123,#123,#139,.T.);
#132=EDGE_CURVE('',#124,#124,#140,.T.);
#133=EDGE_CURVE('',#125,#125,#141,.T.);
#134=CIRCLE('',#190,2.5);
#135=CIRCLE('',#192,3.);
#136=CIRCLE('',#194,2.99999999999993);
#137=CIRCLE('',#196,1.52499999999998);
#138=CIRCLE('',#198,1.52499999999998);
#139=CIRCLE('',#201,1.49999999999999);
#140=CIRCLE('',#203,1.49999999999999);
#141=CIRCLE('',#205,1.29999999999998);
#142=CURVE_STYLE('',#147,POSITIVE_LENGTH_MEASURE(0.18),#146);
#143=CURVE_STYLE('',#148,POSITIVE_LENGTH_MEASURE(0.18),#182);
#144=CURVE_STYLE('',#149,POSITIVE_LENGTH_MEASURE(0.18),#182);
#145=CURVE_STYLE('',#150,POSITIVE_LENGTH_MEASURE(0.18),#182);
#146=DRAUGHTING_PRE_DEFINED_COLOUR('blue');
#147=DRAUGHTING_PRE_DEFINED_CURVE_FONT('continuous');
#148=DRAUGHTING_PRE_DEFINED_CURVE_FONT('continuous');
#149=DRAUGHTING_PRE_DEFINED_CURVE_FONT('continuous');
#150=DRAUGHTING_PRE_DEFINED_CURVE_FONT('continuous');
#151=TRIMMED_CURVE('CUTTING PART LINE',#152,(PARAMETER_VALUE(0.)),(
PARAMETER_VALUE(1.)),.T.,.PARAMETER.);
#152=(
BOUNDED_CURVE()
B_SPLINE_CURVE(3,(#257,#258,#259,#260,#261,#262,#263,#264,#265,#266,#267,
#268,#269,#270,#271,#272),.UNSPECIFIED.,.T.,.F.)
B_SPLINE_CURVE_WITH_KNOTS((4,3,3,3,3,4),(0.,0.11911132762015,0.147895886987021,
0.496067460048157,0.633503607303586,1.),.UNSPECIFIED.)
CURVE()
GEOMETRIC_REPRESENTATION_ITEM()
RATIONAL_B_SPLINE_CURVE((1.,1.,1.,1.,0.804737854124365,0.804737854124365,
1.,1.,1.,1.,1.,1.,1.,1.,1.,1.))
REPRESENTATION_ITEM('CUTTING PART LINE')
);
#153=PRESENTATION_LAYER_ASSIGNMENT('1','Layer 1',(#253,#254,#255,#256,#151,
#187,#188,#189,#46,#47));
#154=STYLED_ITEM('',(#164),#253);
#155=STYLED_ITEM('',(#165),#254);
#156=STYLED_ITEM('',(#166),#255);
#157=STYLED_ITEM('',(#167),#256);
#158=STYLED_ITEM('',(#168),#151);
#159=STYLED_ITEM('',(#169),#187);
#160=STYLED_ITEM('',(#170),#188);
#161=STYLED_ITEM('',(#171),#189);
#162=STYLED_ITEM('',(#172),#46);
#163=STYLED_ITEM('',(#173),#47);
#164=PRESENTATION_STYLE_ASSIGNMENT((#174));
#165=PRESENTATION_STYLE_ASSIGNMENT((#175));
#166=PRESENTATION_STYLE_ASSIGNMENT((#176));
#167=PRESENTATION_STYLE_ASSIGNMENT((#177));
#168=PRESENTATION_STYLE_ASSIGNMENT((#142));
#169=PRESENTATION_STYLE_ASSIGNMENT((#143));
#170=PRESENTATION_STYLE_ASSIGNMENT((#144));
#171=PRESENTATION_STYLE_ASSIGNMENT((#145));
#172=PRESENTATION_STYLE_ASSIGNMENT((#36));
#173=PRESENTATION_STYLE_ASSIGNMENT((#37));
#174=POINT_STYLE('',#178,POSITIVE_LENGTH_MEASURE(3.),#182);
#175=POINT_STYLE('',#179,POSITIVE_LENGTH_MEASURE(3.),#182);
#176=POINT_STYLE('',#180,POSITIVE_LENGTH_MEASURE(3.),#182);
#177=POINT_STYLE('',#181,POSITIVE_LENGTH_MEASURE(3.),#183);
#178=PRE_DEFINED_POINT_MARKER_SYMBOL('plus');
#179=PRE_DEFINED_POINT_MARKER_SYMBOL('plus');
#180=PRE_DEFINED_POINT_MARKER_SYMBOL('plus');
#181=PRE_DEFINED_POINT_MARKER_SYMBOL('plus');
#182=COLOUR_RGB('Strong Stone',0.576470588235294,0.54508278019379,0.392156862745098);
#183=COLOUR_RGB('Medium Royal',0.2,0.4,0.8);
#184=COLOUR_RGB('Medium Gray',0.490196078431373,0.490196078431373,0.490196078431373);
#185=COLOUR_RGB('Light Gray',0.8,0.8,0.8);
#186=AXIS2_PLACEMENT_3D('',#252,#208,#209);
#187=AXIS2_PLACEMENT_3D('MCS',#273,#210,#211);
#188=AXIS2_PLACEMENT_3D('CIP',#274,#212,#213);
#189=AXIS2_PLACEMENT_3D('PCS',#275,#214,#215);
#190=AXIS2_PLACEMENT_3D('',#276,#216,#217);
#191=AXIS2_PLACEMENT_3D('',#278,#218,#219);
#192=AXIS2_PLACEMENT_3D('',#279,#220,#221);
#193=AXIS2_PLACEMENT_3D('',#281,#222,#223);
#194=AXIS2_PLACEMENT_3D('',#282,#224,#225);
#195=AXIS2_PLACEMENT_3D('',#284,#226,#227);
#196=AXIS2_PLACEMENT_3D('',#285,#228,#229);
#197=AXIS2_PLACEMENT_3D('',#287,#230,#231);
#198=AXIS2_PLACEMENT_3D('',#288,#232,#233);
#199=AXIS2_PLACEMENT_3D('',#290,#234,#235);
#200=AXIS2_PLACEMENT_3D('',#291,#236,#237);
#201=AXIS2_PLACEMENT_3D('',#292,#238,#239);
#202=AXIS2_PLACEMENT_3D('',#294,#240,#241);
#203=AXIS2_PLACEMENT_3D('',#295,#242,#243);
#204=AXIS2_PLACEMENT_3D('',#297,#244,#245);
#205=AXIS2_PLACEMENT_3D('',#298,#246,#247);
#206=AXIS2_PLACEMENT_3D('',#300,#248,#249);
#207=AXIS2_PLACEMENT_3D('',#301,#250,#251);
#208=DIRECTION('',(0.,0.,1.));
#209=DIRECTION('',(1.,0.,0.));
#210=DIRECTION('',(0.,0.,1.));
#211=DIRECTION('',(1.,0.,0.));
#212=DIRECTION('',(0.,0.,1.));
#213=DIRECTION('',(1.,0.,0.));
#214=DIRECTION('',(0.,0.,1.));
#215=DIRECTION('',(1.,0.,0.));
#216=DIRECTION('',(0.,0.,-1.));
#217=DIRECTION('',(-1.,0.,0.));
#218=DIRECTION('',(0.,0.,1.));
#219=DIRECTION('',(1.,0.,0.));
#220=DIRECTION('',(0.,0.,-1.));
#221=DIRECTION('',(-1.,0.,0.));
#222=DIRECTION('',(0.,0.,-1.));
#223=DIRECTION('',(-1.,0.,-2.76725579418035E-17));
#224=DIRECTION('',(0.,0.,-1.));
#225=DIRECTION('',(-1.,0.,0.));
#226=DIRECTION('',(0.,0.,-1.));
#227=DIRECTION('',(-1.,0.,0.));
#228=DIRECTION('',(0.,0.,-1.));
#229=DIRECTION('',(-1.,0.,0.));
#230=DIRECTION('',(0.,0.,-1.));
#231=DIRECTION('',(-1.,0.,0.));
#232=DIRECTION('',(0.,0.,-1.));
#233=DIRECTION('',(-1.,0.,0.));
#234=DIRECTION('',(0.,0.,-1.));
#235=DIRECTION('',(-1.,0.,0.));
#236=DIRECTION('',(0.,0.,-1.));
#237=DIRECTION('',(-1.,0.,0.));
#238=DIRECTION('',(0.,0.,1.));
#239=DIRECTION('',(-1.,0.,0.));
#240=DIRECTION('',(0.,0.,-1.));
#241=DIRECTION('',(-1.,0.,0.));
#242=DIRECTION('',(0.,0.,-1.));
#243=DIRECTION('',(-1.,0.,0.));
#244=DIRECTION('',(0.,0.,-1.));
#245=DIRECTION('',(-1.,0.,0.));
#246=DIRECTION('',(0.,0.,-1.));
#247=DIRECTION('',(-1.,0.,0.));
#248=DIRECTION('',(0.,0.,-1.));
#249=DIRECTION('',(-1.,0.,0.));
#250=DIRECTION('',(0.,0.,-1.));
#251=DIRECTION('',(-1.,0.,0.));
#252=CARTESIAN_POINT('',(0.,0.,0.));
#253=CARTESIAN_POINT('',(0.,0.,0.));
#254=CARTESIAN_POINT('',(0.,0.,-14.));
#255=CARTESIAN_POINT('',(0.,0.,36.));
#256=CARTESIAN_POINT('CRP',(-1.5,0.,-14.));
#257=CARTESIAN_POINT('',(0.,0.,-14.));
#258=CARTESIAN_POINT('',(-0.433333333333327,0.,-14.));
#259=CARTESIAN_POINT('',(-0.866666666666655,0.,-14.));
#260=CARTESIAN_POINT('',(-1.29999999999998,0.,-14.));
#261=CARTESIAN_POINT('',(-1.41715728752536,0.,-14.));
#262=CARTESIAN_POINT('',(-1.49999999999998,0.,-13.9171572875253));
#263=CARTESIAN_POINT('',(-1.49999999999999,0.,-13.7999999999999));
#264=CARTESIAN_POINT('',(-1.50000000000003,0.,-12.5333333333333));
#265=CARTESIAN_POINT('',(-1.49999999999999,0.,-11.2666666666666));
#266=CARTESIAN_POINT('',(-1.49999999999999,0.,-10.));
#267=CARTESIAN_POINT('',(-0.999999999999995,0.,-10.));
#268=CARTESIAN_POINT('',(-0.499999999999998,0.,-10.));
#269=CARTESIAN_POINT('',(0.,0.,-10.));
#270=CARTESIAN_POINT('',(0.,0.,-11.3333333333333));
#271=CARTESIAN_POINT('',(0.,0.,-12.6666666666667));
#272=CARTESIAN_POINT('',(0.,0.,-14.));
#273=CARTESIAN_POINT('',(0.,0.,0.));
#274=CARTESIAN_POINT('',(0.,0.,-14.));
#275=CARTESIAN_POINT('',(0.,0.,36.));
#276=CARTESIAN_POINT('',(0.,0.,36.));
#277=CARTESIAN_POINT('',(-2.5,0.,36.));
#278=CARTESIAN_POINT('',(0.,2.5,36.));
#279=CARTESIAN_POINT('',(0.,0.,35.5));
#280=CARTESIAN_POINT('',(-3.,0.,35.5));
#281=CARTESIAN_POINT('',(0.,0.,35.5));
#282=CARTESIAN_POINT('',(0.,0.,-4.45396348016555));
#283=CARTESIAN_POINT('',(-2.99999999999993,0.,-4.45396348016555));
#284=CARTESIAN_POINT('',(0.,0.,0.));
#285=CARTESIAN_POINT('',(0.,0.,-8.));
#286=CARTESIAN_POINT('',(-1.52499999999998,0.,-8.));
#287=CARTESIAN_POINT('',(0.,0.,-8.));
#288=CARTESIAN_POINT('',(0.,0.,-10.));
#289=CARTESIAN_POINT('',(-1.52499999999998,0.,-10.));
#290=CARTESIAN_POINT('',(0.,0.,0.));
#291=CARTESIAN_POINT('',(0.,1.5,-10.));
#292=CARTESIAN_POINT('',(0.,0.,-10.));
#293=CARTESIAN_POINT('',(-1.49999999999999,0.,-10.));
#294=CARTESIAN_POINT('',(0.,0.,-10.));
#295=CARTESIAN_POINT('',(0.,0.,-13.7999999999999));
#296=CARTESIAN_POINT('',(-1.49999999999999,0.,-13.7999999999999));
#297=CARTESIAN_POINT('',(0.,0.,0.));
#298=CARTESIAN_POINT('',(0.,0.,-14.));
#299=CARTESIAN_POINT('',(-1.29999999999998,0.,-14.));
#300=CARTESIAN_POINT('',(0.,0.,-13.7999999999999));
#301=CARTESIAN_POINT('',(0.,0.,-14.));
#302=MECHANICAL_DESIGN_GEOMETRIC_PRESENTATION_REPRESENTATION('',(#154,#155,
#156,#157,#158,#159,#160,#161,#162,#163),#303);
#303=(
GEOMETRIC_REPRESENTATION_CONTEXT(3)
GLOBAL_UNCERTAINTY_ASSIGNED_CONTEXT((#304))
GLOBAL_UNIT_ASSIGNED_CONTEXT((#310,#306,#305))
REPRESENTATION_CONTEXT('JS754030F1R020','TOP_LEVEL_ASSEMBLY_PART')
);
#304=UNCERTAINTY_MEASURE_WITH_UNIT(LENGTH_MEASURE(2.E-5),#310,
'DISTANCE_ACCURACY_VALUE','Maximum Tolerance applied to model');
#305=(
NAMED_UNIT(*)
SI_UNIT($,.STERADIAN.)
SOLID_ANGLE_UNIT()
);
#306=(
CONVERSION_BASED_UNIT('DEGREE',#308)
NAMED_UNIT(#307)
PLANE_ANGLE_UNIT()
);
#307=DIMENSIONAL_EXPONENTS(0.,0.,0.,0.,0.,0.,0.);
#308=PLANE_ANGLE_MEASURE_WITH_UNIT(PLANE_ANGLE_MEASURE(0.0174532925),#309);
#309=(
NAMED_UNIT(*)
PLANE_ANGLE_UNIT()
SI_UNIT($,.RADIAN.)
);
#310=(
LENGTH_UNIT()
NAMED_UNIT(*)
SI_UNIT(.MILLI.,.METRE.)
);
ENDSEC;
END-ISO-10303-21;
