ISO-10303-21;
HEADER;
/* Generated by software containing ST-Developer
 * from STEP Tools, Inc. (www.steptools.com) 
 */
/* OPTION: using custom schema-name function */

FILE_DESCRIPTION(
/* description */ (''),
/* implementation_level */ '2;1');

FILE_NAME(
/* name */ 'JS754080D1C.0Z4-HXT_Basic.stp',
/* time_stamp */ '2022-11-07T11:37:47+05:00',
/* author */ (''),
/* organization */ (''),
/* preprocessor_version */ 'ST-DEVELOPER v16.7',
/* originating_system */ 'SIEMENS PLM Software NX 12.0',
/* authorisation */ '');

FILE_SCHEMA (('AUTOMOTIVE_DESIGN { 1 0 10303 214 3 1 1 1 }'));
ENDSEC;

DATA;
#10=CONSTRUCTIVE_GEOMETRY_REPRESENTATION_RELATIONSHIP(
'supplemental geometry','',#34,#11);
#11=CONSTRUCTIVE_GEOMETRY_REPRESENTATION('supplemental geometry',(#167,
#168,#169),#266);
#12=GEOMETRICALLY_BOUNDED_WIREFRAME_SHAPE_REPRESENTATION(
'inpu3BDCB12Dyi3x-None',(#35),#266);
#13=PROPERTY_DEFINITION_REPRESENTATION(#17,#15);
#14=PROPERTY_DEFINITION_REPRESENTATION(#18,#16);
#15=REPRESENTATION('',(#19),#266);
#16=REPRESENTATION('',(#20),#266);
#17=PROPERTY_DEFINITION('pmi validation property','',#25);
#18=PROPERTY_DEFINITION('pmi validation property','',#25);
#19=VALUE_REPRESENTATION_ITEM('number of annotations',COUNT_MEASURE(0.));
#20=VALUE_REPRESENTATION_ITEM('number of views',COUNT_MEASURE(0.));
#21=SHAPE_REPRESENTATION_RELATIONSHIP('None',
'relationship between inpu3BDCB12Dyi3x-None and inpu3BDCB12Dyi3x-None',
#34,#23);
#22=SHAPE_REPRESENTATION_RELATIONSHIP('None',
'relationship between inpu3BDCB12Dyi3x-None and inpu3BDCB12Dyi3x-None',
#34,#12);
#23=ADVANCED_BREP_SHAPE_REPRESENTATION('inpu3BDCB12Dyi3x-None',(#47,#48),
#266);
#24=SHAPE_DEFINITION_REPRESENTATION(#25,#34);
#25=PRODUCT_DEFINITION_SHAPE('','',#26);
#26=PRODUCT_DEFINITION(' ','',#28,#27);
#27=PRODUCT_DEFINITION_CONTEXT('part definition',#33,'design');
#28=PRODUCT_DEFINITION_FORMATION_WITH_SPECIFIED_SOURCE(' ',' ',#30,
 .NOT_KNOWN.);
#29=PRODUCT_RELATED_PRODUCT_CATEGORY('part','',(#30));
#30=PRODUCT('inpu3BDCB12Dyi3x','inpu3BDCB12Dyi3x',' ',(#31));
#31=PRODUCT_CONTEXT(' ',#33,'mechanical');
#32=APPLICATION_PROTOCOL_DEFINITION('international standard',
'automotive_design',2010,#33);
#33=APPLICATION_CONTEXT(
'core data for automotive mechanical design processes');
#34=SHAPE_REPRESENTATION('inpu3BDCB12Dyi3x-None',(#166),#266);
#35=GEOMETRIC_CURVE_SET('None',(#221,#222,#223,#224,#132));
#36=VERTEX_LOOP('',#110);
#37=SURFACE_STYLE_USAGE(.BOTH.,#39);
#38=SURFACE_STYLE_USAGE(.BOTH.,#40);
#39=SURFACE_SIDE_STYLE('',(#41));
#40=SURFACE_SIDE_STYLE('',(#42));
#41=SURFACE_STYLE_FILL_AREA(#43);
#42=SURFACE_STYLE_FILL_AREA(#44);
#43=FILL_AREA_STYLE('',(#45));
#44=FILL_AREA_STYLE('',(#46));
#45=FILL_AREA_STYLE_COLOUR('',#164);
#46=FILL_AREA_STYLE_COLOUR('',#165);
#47=MANIFOLD_SOLID_BREP('NOCUT',#49);
#48=MANIFOLD_SOLID_BREP('CUT',#50);
#49=CLOSED_SHELL('',(#58,#59,#60,#61));
#50=CLOSED_SHELL('',(#62,#63,#64,#65));
#51=CYLINDRICAL_SURFACE('',#176,4.);
#52=PLANE('',#173);
#53=PLANE('',#175);
#54=PLANE('',#178);
#55=FACE_OUTER_BOUND('',#82,.T.);
#56=FACE_OUTER_BOUND('',#83,.T.);
#57=FACE_OUTER_BOUND('',#86,.T.);
#58=ADVANCED_FACE('',(#70,#71),#66,.T.);
#59=ADVANCED_FACE('',(#55),#52,.T.);
#60=ADVANCED_FACE('',(#56),#53,.T.);
#61=ADVANCED_FACE('',(#72,#73),#51,.T.);
#62=ADVANCED_FACE('',(#57),#54,.F.);
#63=ADVANCED_FACE('',(#74,#75),#67,.T.);
#64=ADVANCED_FACE('',(#76,#77),#68,.T.);
#65=ADVANCED_FACE('',(#78,#79),#69,.F.);
#66=CONICAL_SURFACE('',#172,4.,44.9999999999999);
#67=CONICAL_SURFACE('',#180,4.,0.0100000000000026);
#68=CONICAL_SURFACE('',#182,3.9,45.0000000000004);
#69=CONICAL_SURFACE('',#183,1.99840144432528E-15,85.9999999999999);
#70=FACE_BOUND('',#80,.T.);
#71=FACE_BOUND('',#81,.T.);
#72=FACE_BOUND('',#84,.T.);
#73=FACE_BOUND('',#85,.T.);
#74=FACE_BOUND('',#87,.T.);
#75=FACE_BOUND('',#88,.T.);
#76=FACE_BOUND('',#89,.T.);
#77=FACE_BOUND('',#90,.T.);
#78=FACE_BOUND('',#91,.T.);
#79=FACE_BOUND('',#36,.T.);
#80=EDGE_LOOP('',(#92));
#81=EDGE_LOOP('',(#93));
#82=EDGE_LOOP('',(#94));
#83=EDGE_LOOP('',(#95));
#84=EDGE_LOOP('',(#96));
#85=EDGE_LOOP('',(#97));
#86=EDGE_LOOP('',(#98));
#87=EDGE_LOOP('',(#99));
#88=EDGE_LOOP('',(#100));
#89=EDGE_LOOP('',(#101));
#90=EDGE_LOOP('',(#102));
#91=EDGE_LOOP('',(#103));
#92=ORIENTED_EDGE('',*,*,#111,.T.);
#93=ORIENTED_EDGE('',*,*,#112,.F.);
#94=ORIENTED_EDGE('',*,*,#111,.F.);
#95=ORIENTED_EDGE('',*,*,#113,.T.);
#96=ORIENTED_EDGE('',*,*,#112,.T.);
#97=ORIENTED_EDGE('',*,*,#113,.F.);
#98=ORIENTED_EDGE('',*,*,#114,.F.);
#99=ORIENTED_EDGE('',*,*,#115,.F.);
#100=ORIENTED_EDGE('',*,*,#114,.T.);
#101=ORIENTED_EDGE('',*,*,#115,.T.);
#102=ORIENTED_EDGE('',*,*,#116,.F.);
#103=ORIENTED_EDGE('',*,*,#116,.T.);
#104=VERTEX_POINT('',#245);
#105=VERTEX_POINT('',#247);
#106=VERTEX_POINT('',#251);
#107=VERTEX_POINT('',#255);
#108=VERTEX_POINT('',#258);
#109=VERTEX_POINT('',#261);
#110=VERTEX_POINT('',#263);
#111=EDGE_CURVE('',#104,#104,#117,.T.);
#112=EDGE_CURVE('',#105,#105,#118,.T.);
#113=EDGE_CURVE('',#106,#106,#119,.T.);
#114=EDGE_CURVE('',#107,#107,#120,.T.);
#115=EDGE_CURVE('',#108,#108,#121,.T.);
#116=EDGE_CURVE('',#109,#109,#122,.T.);
#117=CIRCLE('',#170,3.3);
#118=CIRCLE('',#171,4.);
#119=CIRCLE('',#174,4.);
#120=CIRCLE('',#177,3.99809759109601);
#121=CIRCLE('',#179,4.);
#122=CIRCLE('',#181,3.9);
#123=CURVE_STYLE('',#128,POSITIVE_LENGTH_MEASURE(0.18),#127);
#124=CURVE_STYLE('',#129,POSITIVE_LENGTH_MEASURE(0.18),#163);
#125=CURVE_STYLE('',#130,POSITIVE_LENGTH_MEASURE(0.18),#163);
#126=CURVE_STYLE('',#131,POSITIVE_LENGTH_MEASURE(0.18),#163);
#127=DRAUGHTING_PRE_DEFINED_COLOUR('blue');
#128=DRAUGHTING_PRE_DEFINED_CURVE_FONT('continuous');
#129=DRAUGHTING_PRE_DEFINED_CURVE_FONT('continuous');
#130=DRAUGHTING_PRE_DEFINED_CURVE_FONT('continuous');
#131=DRAUGHTING_PRE_DEFINED_CURVE_FONT('continuous');
#132=B_SPLINE_CURVE_WITH_KNOTS('CUTTING PART LINE',3,(#225,#226,#227,#228,
#229,#230,#231,#232,#233,#234,#235,#236,#237,#238,#239,#240),
 .UNSPECIFIED.,.T.,.F.,(1,3,3,3,3,3,3,1),(-0.00476546008126599,0.,0.131738785513002,
0.493214957760429,0.627938418084005,0.995234539918734,1.,1.131738785513),
 .UNSPECIFIED.);
#133=PRESENTATION_LAYER_ASSIGNMENT('1','Layer 1',(#221,#222,#223,#224,#132,
#167,#168,#169,#47,#48));
#134=STYLED_ITEM('',(#144),#221);
#135=STYLED_ITEM('',(#145),#222);
#136=STYLED_ITEM('',(#146),#223);
#137=STYLED_ITEM('',(#147),#224);
#138=STYLED_ITEM('',(#148),#132);
#139=STYLED_ITEM('',(#149),#167);
#140=STYLED_ITEM('',(#150),#168);
#141=STYLED_ITEM('',(#151),#169);
#142=STYLED_ITEM('',(#152),#47);
#143=STYLED_ITEM('',(#153),#48);
#144=PRESENTATION_STYLE_ASSIGNMENT((#154));
#145=PRESENTATION_STYLE_ASSIGNMENT((#155));
#146=PRESENTATION_STYLE_ASSIGNMENT((#156));
#147=PRESENTATION_STYLE_ASSIGNMENT((#157));
#148=PRESENTATION_STYLE_ASSIGNMENT((#123));
#149=PRESENTATION_STYLE_ASSIGNMENT((#124));
#150=PRESENTATION_STYLE_ASSIGNMENT((#125));
#151=PRESENTATION_STYLE_ASSIGNMENT((#126));
#152=PRESENTATION_STYLE_ASSIGNMENT((#37));
#153=PRESENTATION_STYLE_ASSIGNMENT((#38));
#154=POINT_STYLE('',#158,POSITIVE_LENGTH_MEASURE(3.),#162);
#155=POINT_STYLE('',#159,POSITIVE_LENGTH_MEASURE(3.),#163);
#156=POINT_STYLE('',#160,POSITIVE_LENGTH_MEASURE(3.),#163);
#157=POINT_STYLE('',#161,POSITIVE_LENGTH_MEASURE(3.),#163);
#158=PRE_DEFINED_POINT_MARKER_SYMBOL('plus');
#159=PRE_DEFINED_POINT_MARKER_SYMBOL('plus');
#160=PRE_DEFINED_POINT_MARKER_SYMBOL('plus');
#161=PRE_DEFINED_POINT_MARKER_SYMBOL('plus');
#162=COLOUR_RGB('Medium Royal',0.2,0.4,0.8);
#163=COLOUR_RGB('Pale Maroon',0.811749446860456,0.603921568627451,0.611749446860456);
#164=COLOUR_RGB('Medium Gray',0.490196078431373,0.490196078431373,0.490196078431373);
#165=COLOUR_RGB('Light Gray',0.8,0.8,0.8);
#166=AXIS2_PLACEMENT_3D('',#220,#184,#185);
#167=AXIS2_PLACEMENT_3D('PCS',#241,#186,#187);
#168=AXIS2_PLACEMENT_3D('MCS',#242,#188,#189);
#169=AXIS2_PLACEMENT_3D('CIP',#243,#190,#191);
#170=AXIS2_PLACEMENT_3D('',#244,#192,#193);
#171=AXIS2_PLACEMENT_3D('',#246,#194,#195);
#172=AXIS2_PLACEMENT_3D('',#248,#196,#197);
#173=AXIS2_PLACEMENT_3D('',#249,#198,#199);
#174=AXIS2_PLACEMENT_3D('',#250,#200,#201);
#175=AXIS2_PLACEMENT_3D('',#252,#202,#203);
#176=AXIS2_PLACEMENT_3D('',#253,#204,#205);
#177=AXIS2_PLACEMENT_3D('',#254,#206,#207);
#178=AXIS2_PLACEMENT_3D('',#256,#208,#209);
#179=AXIS2_PLACEMENT_3D('',#257,#210,#211);
#180=AXIS2_PLACEMENT_3D('',#259,#212,#213);
#181=AXIS2_PLACEMENT_3D('',#260,#214,#215);
#182=AXIS2_PLACEMENT_3D('',#262,#216,#217);
#183=AXIS2_PLACEMENT_3D('',#264,#218,#219);
#184=DIRECTION('',(0.,0.,1.));
#185=DIRECTION('',(1.,0.,0.));
#186=DIRECTION('',(0.,0.,1.));
#187=DIRECTION('',(1.,0.,0.));
#188=DIRECTION('',(0.,0.,1.));
#189=DIRECTION('',(1.,0.,0.));
#190=DIRECTION('',(0.,0.,1.));
#191=DIRECTION('',(1.,0.,0.));
#192=DIRECTION('',(0.,0.,-1.));
#193=DIRECTION('',(-1.,0.,0.));
#194=DIRECTION('',(0.,0.,-1.));
#195=DIRECTION('',(-1.,0.,0.));
#196=DIRECTION('',(0.,0.,-1.));
#197=DIRECTION('',(-1.,0.,0.));
#198=DIRECTION('',(0.,0.,1.));
#199=DIRECTION('',(1.,0.,0.));
#200=DIRECTION('',(0.,0.,-1.));
#201=DIRECTION('',(-1.,0.,0.));
#202=DIRECTION('',(0.,0.,-1.));
#203=DIRECTION('',(-1.,0.,0.));
#204=DIRECTION('',(0.,0.,-1.));
#205=DIRECTION('',(-1.,0.,0.));
#206=DIRECTION('',(0.,0.,-1.));
#207=DIRECTION('',(-1.,0.,0.));
#208=DIRECTION('',(0.,0.,-1.));
#209=DIRECTION('',(-1.,0.,0.));
#210=DIRECTION('',(0.,0.,-1.));
#211=DIRECTION('',(-1.,0.,0.));
#212=DIRECTION('',(0.,0.,-1.));
#213=DIRECTION('',(-1.,0.,-7.47988412448194E-15));
#214=DIRECTION('',(0.,0.,-1.));
#215=DIRECTION('',(-1.,0.,0.));
#216=DIRECTION('',(0.,0.,1.));
#217=DIRECTION('',(1.,0.,-2.07358120447469E-17));
#218=DIRECTION('',(0.,0.,-1.));
#219=DIRECTION('',(-1.,0.,9.70429458229007E-19));
#220=CARTESIAN_POINT('',(0.,0.,0.));
#221=CARTESIAN_POINT('CRP',(-4.,0.,-22.));
#222=CARTESIAN_POINT('',(0.,0.,36.));
#223=CARTESIAN_POINT('',(0.,0.,0.));
#224=CARTESIAN_POINT('',(0.,0.,-22.));
#225=CARTESIAN_POINT('',(-3.9,0.,-22.));
#226=CARTESIAN_POINT('',(-2.6,0.,-21.9090951444734));
#227=CARTESIAN_POINT('',(-1.3,0.,-21.8181902889469));
#228=CARTESIAN_POINT('',(-8.88178419700125E-16,0.,-21.7272854334203));
#229=CARTESIAN_POINT('',(0.,0.,-18.1515236222802));
#230=CARTESIAN_POINT('',(0.,0.,-14.5757618111401));
#231=CARTESIAN_POINT('',(0.,0.,-11.));
#232=CARTESIAN_POINT('',(-1.332699197032,0.,-11.));
#233=CARTESIAN_POINT('',(-2.66539839406401,0.,-11.));
#234=CARTESIAN_POINT('',(-3.99809759109601,0.,-11.0000000000018));
#235=CARTESIAN_POINT('',(-3.99873172739734,0.,-14.6333333333362));
#236=CARTESIAN_POINT('',(-3.99936586369867,0.,-18.2666666666688));
#237=CARTESIAN_POINT('',(-4.00000000000033,0.,-21.9000000000004));
#238=CARTESIAN_POINT('',(-3.9666666666671,0.,-21.9333333333329));
#239=CARTESIAN_POINT('',(-3.93333333333355,0.,-21.9666666666665));
#240=CARTESIAN_POINT('',(-3.9,0.,-22.));
#241=CARTESIAN_POINT('',(0.,0.,36.));
#242=CARTESIAN_POINT('',(0.,0.,0.));
#243=CARTESIAN_POINT('',(0.,0.,-22.));
#244=CARTESIAN_POINT('',(0.,0.,36.));
#245=CARTESIAN_POINT('',(-3.3,0.,36.));
#246=CARTESIAN_POINT('',(0.,0.,35.3));
#247=CARTESIAN_POINT('',(-4.,0.,35.3));
#248=CARTESIAN_POINT('',(0.,0.,35.3));
#249=CARTESIAN_POINT('',(3.3,0.,36.));
#250=CARTESIAN_POINT('',(0.,0.,-11.));
#251=CARTESIAN_POINT('',(-4.,0.,-11.));
#252=CARTESIAN_POINT('',(3.99809759109601,0.,-11.));
#253=CARTESIAN_POINT('',(0.,0.,0.));
#254=CARTESIAN_POINT('',(0.,0.,-11.));
#255=CARTESIAN_POINT('',(-3.99809759109601,0.,-11.));
#256=CARTESIAN_POINT('',(0.,0.,-11.));
#257=CARTESIAN_POINT('',(0.,0.,-21.9));
#258=CARTESIAN_POINT('',(-4.,0.,-21.9));
#259=CARTESIAN_POINT('',(0.,0.,-21.9));
#260=CARTESIAN_POINT('',(0.,0.,-22.));
#261=CARTESIAN_POINT('',(-3.9,0.,-22.));
#262=CARTESIAN_POINT('',(0.,0.,-22.));
#263=CARTESIAN_POINT('',(0.,0.,-21.7272854334203));
#264=CARTESIAN_POINT('',(0.,0.,-21.7272854334203));
#265=MECHANICAL_DESIGN_GEOMETRIC_PRESENTATION_REPRESENTATION('',(#134,#135,
#136,#137,#138,#139,#140,#141,#142,#143),#266);
#266=(
GEOMETRIC_REPRESENTATION_CONTEXT(3)
GLOBAL_UNCERTAINTY_ASSIGNED_CONTEXT((#267))
GLOBAL_UNIT_ASSIGNED_CONTEXT((#273,#269,#268))
REPRESENTATION_CONTEXT('JS754080D1C','TOP_LEVEL_ASSEMBLY_PART')
);
#267=UNCERTAINTY_MEASURE_WITH_UNIT(LENGTH_MEASURE(2.E-5),#273,
'DISTANCE_ACCURACY_VALUE','Maximum Tolerance applied to model');
#268=(
NAMED_UNIT(*)
SI_UNIT($,.STERADIAN.)
SOLID_ANGLE_UNIT()
);
#269=(
CONVERSION_BASED_UNIT('DEGREE',#271)
NAMED_UNIT(#270)
PLANE_ANGLE_UNIT()
);
#270=DIMENSIONAL_EXPONENTS(0.,0.,0.,0.,0.,0.,0.);
#271=PLANE_ANGLE_MEASURE_WITH_UNIT(PLANE_ANGLE_MEASURE(0.0174532925),#272);
#272=(
NAMED_UNIT(*)
PLANE_ANGLE_UNIT()
SI_UNIT($,.RADIAN.)
);
#273=(
LENGTH_UNIT()
NAMED_UNIT(*)
SI_UNIT(.MILLI.,.METRE.)
);
ENDSEC;
END-ISO-10303-21;
