ISO-10303-21;
HEADER;
/* Generated by software containing ST-Developer
 * from STEP Tools, Inc. (www.steptools.com) 
 */
/* OPTION: using custom schema-name function */

FILE_DESCRIPTION(
/* description */ (''),
/* implementation_level */ '2;1');

FILE_NAME(
/* name */ 'JS754040F1C.0Z4-HXT_Basic.stp',
/* time_stamp */ '2022-11-07T16:34:51+05:00',
/* author */ (''),
/* organization */ (''),
/* preprocessor_version */ 'ST-DEVELOPER v16.7',
/* originating_system */ 'SIEMENS PLM Software NX 12.0',
/* authorisation */ '');

FILE_SCHEMA (('AUTOMOTIVE_DESIGN { 1 0 10303 214 3 1 1 1 }'));
ENDSEC;

DATA;
#10=CONSTRUCTIVE_GEOMETRY_REPRESENTATION_RELATIONSHIP(
'supplemental geometry','',#34,#11);
#11=CONSTRUCTIVE_GEOMETRY_REPRESENTATION('supplemental geometry',(#189,
#190,#191),#306);
#12=GEOMETRICALLY_BOUNDED_WIREFRAME_SHAPE_REPRESENTATION(
'inpu3BDCB12Dyiji-None',(#35),#306);
#13=PROPERTY_DEFINITION_REPRESENTATION(#17,#15);
#14=PROPERTY_DEFINITION_REPRESENTATION(#18,#16);
#15=REPRESENTATION('',(#19),#306);
#16=REPRESENTATION('',(#20),#306);
#17=PROPERTY_DEFINITION('pmi validation property','',#25);
#18=PROPERTY_DEFINITION('pmi validation property','',#25);
#19=VALUE_REPRESENTATION_ITEM('number of annotations',COUNT_MEASURE(0.));
#20=VALUE_REPRESENTATION_ITEM('number of views',COUNT_MEASURE(0.));
#21=SHAPE_REPRESENTATION_RELATIONSHIP('None',
'relationship between inpu3BDCB12Dyiji-None and inpu3BDCB12Dyiji-None',
#34,#23);
#22=SHAPE_REPRESENTATION_RELATIONSHIP('None',
'relationship between inpu3BDCB12Dyiji-None and inpu3BDCB12Dyiji-None',
#34,#12);
#23=ADVANCED_BREP_SHAPE_REPRESENTATION('inpu3BDCB12Dyiji-None',(#47,#48),
#306);
#24=SHAPE_DEFINITION_REPRESENTATION(#25,#34);
#25=PRODUCT_DEFINITION_SHAPE('','',#26);
#26=PRODUCT_DEFINITION(' ','',#28,#27);
#27=PRODUCT_DEFINITION_CONTEXT('part definition',#33,'design');
#28=PRODUCT_DEFINITION_FORMATION_WITH_SPECIFIED_SOURCE(' ',' ',#30,
 .NOT_KNOWN.);
#29=PRODUCT_RELATED_PRODUCT_CATEGORY('part','',(#30));
#30=PRODUCT('inpu3BDCB12Dyiji','inpu3BDCB12Dyiji',' ',(#31));
#31=PRODUCT_CONTEXT(' ',#33,'mechanical');
#32=APPLICATION_PROTOCOL_DEFINITION('international standard',
'automotive_design',2010,#33);
#33=APPLICATION_CONTEXT(
'core data for automotive mechanical design processes');
#34=SHAPE_REPRESENTATION('inpu3BDCB12Dyiji-None',(#188),#306);
#35=GEOMETRIC_CURVE_SET('None',(#255,#256,#257,#258,#154));
#36=VERTEX_LOOP('',#126);
#37=SURFACE_STYLE_USAGE(.BOTH.,#39);
#38=SURFACE_STYLE_USAGE(.BOTH.,#40);
#39=SURFACE_SIDE_STYLE('',(#41));
#40=SURFACE_SIDE_STYLE('',(#42));
#41=SURFACE_STYLE_FILL_AREA(#43);
#42=SURFACE_STYLE_FILL_AREA(#44);
#43=FILL_AREA_STYLE('',(#45));
#44=FILL_AREA_STYLE('',(#46));
#45=FILL_AREA_STYLE_COLOUR('',#186);
#46=FILL_AREA_STYLE_COLOUR('',#187);
#47=MANIFOLD_SOLID_BREP('NOCUT',#49);
#48=MANIFOLD_SOLID_BREP('CUT',#50);
#49=CLOSED_SHELL('',(#60,#61,#62,#63,#64,#65));
#50=CLOSED_SHELL('',(#66,#67,#68,#69));
#51=TOROIDAL_SURFACE('',#201,7.01500000000001,5.);
#52=CYLINDRICAL_SURFACE('',#199,2.01500000000001);
#53=CYLINDRICAL_SURFACE('',#202,3.);
#54=PLANE('',#195);
#55=PLANE('',#197);
#56=PLANE('',#209);
#57=FACE_OUTER_BOUND('',#90,.T.);
#58=FACE_OUTER_BOUND('',#91,.T.);
#59=FACE_OUTER_BOUND('',#103,.T.);
#60=ADVANCED_FACE('',(#74,#75),#70,.T.);
#61=ADVANCED_FACE('',(#57),#54,.T.);
#62=ADVANCED_FACE('',(#58),#55,.T.);
#63=ADVANCED_FACE('',(#76,#77),#52,.T.);
#64=ADVANCED_FACE('',(#78,#79),#51,.F.);
#65=ADVANCED_FACE('',(#80,#81),#53,.T.);
#66=ADVANCED_FACE('',(#82,#83),#71,.F.);
#67=ADVANCED_FACE('',(#84,#85),#72,.T.);
#68=ADVANCED_FACE('',(#86,#87),#73,.T.);
#69=ADVANCED_FACE('',(#59),#56,.F.);
#70=CONICAL_SURFACE('',#194,3.,45.);
#71=CONICAL_SURFACE('',#204,3.10862446895044E-15,85.9999999999998);
#72=CONICAL_SURFACE('',#206,1.955,44.9999999999992);
#73=CONICAL_SURFACE('',#208,2.,0.00999999999999223);
#74=FACE_BOUND('',#88,.T.);
#75=FACE_BOUND('',#89,.T.);
#76=FACE_BOUND('',#92,.T.);
#77=FACE_BOUND('',#93,.T.);
#78=FACE_BOUND('',#94,.T.);
#79=FACE_BOUND('',#95,.T.);
#80=FACE_BOUND('',#96,.T.);
#81=FACE_BOUND('',#97,.T.);
#82=FACE_BOUND('',#98,.T.);
#83=FACE_BOUND('',#36,.T.);
#84=FACE_BOUND('',#99,.T.);
#85=FACE_BOUND('',#100,.T.);
#86=FACE_BOUND('',#101,.T.);
#87=FACE_BOUND('',#102,.T.);
#88=EDGE_LOOP('',(#104));
#89=EDGE_LOOP('',(#105));
#90=EDGE_LOOP('',(#106));
#91=EDGE_LOOP('',(#107));
#92=EDGE_LOOP('',(#108));
#93=EDGE_LOOP('',(#109));
#94=EDGE_LOOP('',(#110));
#95=EDGE_LOOP('',(#111));
#96=EDGE_LOOP('',(#112));
#97=EDGE_LOOP('',(#113));
#98=EDGE_LOOP('',(#114));
#99=EDGE_LOOP('',(#115));
#100=EDGE_LOOP('',(#116));
#101=EDGE_LOOP('',(#117));
#102=EDGE_LOOP('',(#118));
#103=EDGE_LOOP('',(#119));
#104=ORIENTED_EDGE('',*,*,#129,.T.);
#105=ORIENTED_EDGE('',*,*,#130,.F.);
#106=ORIENTED_EDGE('',*,*,#129,.F.);
#107=ORIENTED_EDGE('',*,*,#131,.T.);
#108=ORIENTED_EDGE('',*,*,#132,.T.);
#109=ORIENTED_EDGE('',*,*,#131,.F.);
#110=ORIENTED_EDGE('',*,*,#133,.T.);
#111=ORIENTED_EDGE('',*,*,#132,.F.);
#112=ORIENTED_EDGE('',*,*,#130,.T.);
#113=ORIENTED_EDGE('',*,*,#133,.F.);
#114=ORIENTED_EDGE('',*,*,#134,.T.);
#115=ORIENTED_EDGE('',*,*,#134,.F.);
#116=ORIENTED_EDGE('',*,*,#135,.T.);
#117=ORIENTED_EDGE('',*,*,#136,.T.);
#118=ORIENTED_EDGE('',*,*,#135,.F.);
#119=ORIENTED_EDGE('',*,*,#136,.F.);
#120=VERTEX_POINT('',#279);
#121=VERTEX_POINT('',#281);
#122=VERTEX_POINT('',#285);
#123=VERTEX_POINT('',#288);
#124=VERTEX_POINT('',#291);
#125=VERTEX_POINT('',#295);
#126=VERTEX_POINT('',#296);
#127=VERTEX_POINT('',#299);
#128=VERTEX_POINT('',#302);
#129=EDGE_CURVE('',#120,#120,#137,.T.);
#130=EDGE_CURVE('',#121,#121,#138,.T.);
#131=EDGE_CURVE('',#122,#122,#139,.T.);
#132=EDGE_CURVE('',#123,#123,#140,.T.);
#133=EDGE_CURVE('',#124,#124,#141,.T.);
#134=EDGE_CURVE('',#125,#125,#142,.T.);
#135=EDGE_CURVE('',#127,#127,#143,.T.);
#136=EDGE_CURVE('',#128,#128,#144,.T.);
#137=CIRCLE('',#192,2.5);
#138=CIRCLE('',#193,3.);
#139=CIRCLE('',#196,2.01500000000001);
#140=CIRCLE('',#198,2.01500000000001);
#141=CIRCLE('',#200,3.);
#142=CIRCLE('',#203,1.955);
#143=CIRCLE('',#205,2.);
#144=CIRCLE('',#207,1.99913518934686);
#145=CURVE_STYLE('',#150,POSITIVE_LENGTH_MEASURE(0.18),#149);
#146=CURVE_STYLE('',#151,POSITIVE_LENGTH_MEASURE(0.18),#185);
#147=CURVE_STYLE('',#152,POSITIVE_LENGTH_MEASURE(0.18),#185);
#148=CURVE_STYLE('',#153,POSITIVE_LENGTH_MEASURE(0.18),#185);
#149=DRAUGHTING_PRE_DEFINED_COLOUR('blue');
#150=DRAUGHTING_PRE_DEFINED_CURVE_FONT('continuous');
#151=DRAUGHTING_PRE_DEFINED_CURVE_FONT('continuous');
#152=DRAUGHTING_PRE_DEFINED_CURVE_FONT('continuous');
#153=DRAUGHTING_PRE_DEFINED_CURVE_FONT('continuous');
#154=B_SPLINE_CURVE_WITH_KNOTS('CUTTING PART LINE',3,(#259,#260,#261,#262,
#263,#264,#265,#266,#267,#268,#269,#270,#271,#272,#273,#274),
 .UNSPECIFIED.,.T.,.F.,(1,3,3,3,3,3,3,1),(-0.00459795805093,0.,0.357998460104407,
0.502435858372692,0.853808493713502,0.99540204194907,1.,1.35799846010441),
 .UNSPECIFIED.);
#155=PRESENTATION_LAYER_ASSIGNMENT('1','Layer 1',(#255,#256,#257,#258,#154,
#189,#190,#191,#47,#48));
#156=STYLED_ITEM('',(#166),#255);
#157=STYLED_ITEM('',(#167),#256);
#158=STYLED_ITEM('',(#168),#257);
#159=STYLED_ITEM('',(#169),#258);
#160=STYLED_ITEM('',(#170),#154);
#161=STYLED_ITEM('',(#171),#189);
#162=STYLED_ITEM('',(#172),#190);
#163=STYLED_ITEM('',(#173),#191);
#164=STYLED_ITEM('',(#174),#47);
#165=STYLED_ITEM('',(#175),#48);
#166=PRESENTATION_STYLE_ASSIGNMENT((#176));
#167=PRESENTATION_STYLE_ASSIGNMENT((#177));
#168=PRESENTATION_STYLE_ASSIGNMENT((#178));
#169=PRESENTATION_STYLE_ASSIGNMENT((#179));
#170=PRESENTATION_STYLE_ASSIGNMENT((#145));
#171=PRESENTATION_STYLE_ASSIGNMENT((#146));
#172=PRESENTATION_STYLE_ASSIGNMENT((#147));
#173=PRESENTATION_STYLE_ASSIGNMENT((#148));
#174=PRESENTATION_STYLE_ASSIGNMENT((#37));
#175=PRESENTATION_STYLE_ASSIGNMENT((#38));
#176=POINT_STYLE('',#180,POSITIVE_LENGTH_MEASURE(3.),#184);
#177=POINT_STYLE('',#181,POSITIVE_LENGTH_MEASURE(3.),#185);
#178=POINT_STYLE('',#182,POSITIVE_LENGTH_MEASURE(3.),#185);
#179=POINT_STYLE('',#183,POSITIVE_LENGTH_MEASURE(3.),#185);
#180=PRE_DEFINED_POINT_MARKER_SYMBOL('plus');
#181=PRE_DEFINED_POINT_MARKER_SYMBOL('plus');
#182=PRE_DEFINED_POINT_MARKER_SYMBOL('plus');
#183=PRE_DEFINED_POINT_MARKER_SYMBOL('plus');
#184=COLOUR_RGB('Medium Royal',0.2,0.4,0.8);
#185=COLOUR_RGB('Pale Maroon',0.811749446860456,0.603921568627451,0.611749446860456);
#186=COLOUR_RGB('Medium Gray',0.490196078431373,0.490196078431373,0.490196078431373);
#187=COLOUR_RGB('Light Gray',0.8,0.8,0.8);
#188=AXIS2_PLACEMENT_3D('',#254,#210,#211);
#189=AXIS2_PLACEMENT_3D('PCS',#275,#212,#213);
#190=AXIS2_PLACEMENT_3D('MCS',#276,#214,#215);
#191=AXIS2_PLACEMENT_3D('CIP',#277,#216,#217);
#192=AXIS2_PLACEMENT_3D('',#278,#218,#219);
#193=AXIS2_PLACEMENT_3D('',#280,#220,#221);
#194=AXIS2_PLACEMENT_3D('',#282,#222,#223);
#195=AXIS2_PLACEMENT_3D('',#283,#224,#225);
#196=AXIS2_PLACEMENT_3D('',#284,#226,#227);
#197=AXIS2_PLACEMENT_3D('',#286,#228,#229);
#198=AXIS2_PLACEMENT_3D('',#287,#230,#231);
#199=AXIS2_PLACEMENT_3D('',#289,#232,#233);
#200=AXIS2_PLACEMENT_3D('',#290,#234,#235);
#201=AXIS2_PLACEMENT_3D('',#292,#236,#237);
#202=AXIS2_PLACEMENT_3D('',#293,#238,#239);
#203=AXIS2_PLACEMENT_3D('',#294,#240,#241);
#204=AXIS2_PLACEMENT_3D('',#297,#242,#243);
#205=AXIS2_PLACEMENT_3D('',#298,#244,#245);
#206=AXIS2_PLACEMENT_3D('',#300,#246,#247);
#207=AXIS2_PLACEMENT_3D('',#301,#248,#249);
#208=AXIS2_PLACEMENT_3D('',#303,#250,#251);
#209=AXIS2_PLACEMENT_3D('',#304,#252,#253);
#210=DIRECTION('',(0.,0.,1.));
#211=DIRECTION('',(1.,0.,0.));
#212=DIRECTION('',(0.,0.,1.));
#213=DIRECTION('',(1.,0.,0.));
#214=DIRECTION('',(0.,0.,1.));
#215=DIRECTION('',(1.,0.,0.));
#216=DIRECTION('',(0.,0.,1.));
#217=DIRECTION('',(1.,0.,0.));
#218=DIRECTION('',(0.,0.,-1.));
#219=DIRECTION('',(-1.,0.,0.));
#220=DIRECTION('',(0.,0.,-1.));
#221=DIRECTION('',(-1.,0.,0.));
#222=DIRECTION('',(0.,0.,-1.));
#223=DIRECTION('',(-1.,0.,-2.76725579418035E-17));
#224=DIRECTION('',(0.,0.,1.));
#225=DIRECTION('',(1.,0.,0.));
#226=DIRECTION('',(0.,0.,-1.));
#227=DIRECTION('',(-1.,0.,0.));
#228=DIRECTION('',(0.,0.,-1.));
#229=DIRECTION('',(-1.,0.,0.));
#230=DIRECTION('',(0.,0.,-1.));
#231=DIRECTION('',(-1.,0.,0.));
#232=DIRECTION('',(0.,0.,-1.));
#233=DIRECTION('',(-1.,0.,0.));
#234=DIRECTION('',(0.,0.,-1.));
#235=DIRECTION('',(-1.,0.,0.));
#236=DIRECTION('',(0.,0.,-1.));
#237=DIRECTION('',(-1.,0.,0.));
#238=DIRECTION('',(0.,0.,-1.));
#239=DIRECTION('',(-1.,0.,0.));
#240=DIRECTION('',(0.,0.,-1.));
#241=DIRECTION('',(-1.,0.,0.));
#242=DIRECTION('',(0.,0.,-1.));
#243=DIRECTION('',(-1.,0.,4.97345097342379E-18));
#244=DIRECTION('',(0.,0.,-1.));
#245=DIRECTION('',(-1.,0.,0.));
#246=DIRECTION('',(0.,0.,1.));
#247=DIRECTION('',(1.,0.,-1.2119370961608E-17));
#248=DIRECTION('',(0.,0.,-1.));
#249=DIRECTION('',(-1.,0.,0.));
#250=DIRECTION('',(0.,0.,-1.));
#251=DIRECTION('',(-1.,0.,2.79210863657731E-14));
#252=DIRECTION('',(0.,0.,-1.));
#253=DIRECTION('',(-1.,0.,0.));
#254=CARTESIAN_POINT('',(0.,0.,0.));
#255=CARTESIAN_POINT('CRP',(-2.,0.,-14.));
#256=CARTESIAN_POINT('',(0.,0.,36.));
#257=CARTESIAN_POINT('',(0.,0.,0.));
#258=CARTESIAN_POINT('',(0.,0.,-14.));
#259=CARTESIAN_POINT('',(-2.00000000000018,0.,-13.955));
#260=CARTESIAN_POINT('',(-1.99971172978229,0.,-12.3033333333348));
#261=CARTESIAN_POINT('',(-1.99942345956457,0.,-10.6516666666692));
#262=CARTESIAN_POINT('',(-1.99913518934686,0.,-9.00000000000182));
#263=CARTESIAN_POINT('',(-1.33275679289791,0.,-9.));
#264=CARTESIAN_POINT('',(-0.666378396448953,0.,-9.));
#265=CARTESIAN_POINT('',(0.,0.,-9.));
#266=CARTESIAN_POINT('',(0.,0.,-10.6210976942168));
#267=CARTESIAN_POINT('',(0.,0.,-12.2421953884336));
#268=CARTESIAN_POINT('',(-1.54674900456519E-15,0.,-13.8632930826504));
#269=CARTESIAN_POINT('',(-0.651666666666669,0.,-13.9088620551003));
#270=CARTESIAN_POINT('',(-1.30333333333334,0.,-13.9544310275501));
#271=CARTESIAN_POINT('',(-1.955,0.,-14.));
#272=CARTESIAN_POINT('',(-1.97000000000012,0.,-13.9849999999999));
#273=CARTESIAN_POINT('',(-1.98500000000024,0.,-13.9699999999998));
#274=CARTESIAN_POINT('',(-2.00000000000018,0.,-13.955));
#275=CARTESIAN_POINT('',(0.,0.,36.));
#276=CARTESIAN_POINT('',(0.,0.,0.));
#277=CARTESIAN_POINT('',(0.,0.,-14.));
#278=CARTESIAN_POINT('',(0.,0.,36.));
#279=CARTESIAN_POINT('',(-2.5,0.,36.));
#280=CARTESIAN_POINT('',(0.,0.,35.5));
#281=CARTESIAN_POINT('',(-3.,0.,35.5));
#282=CARTESIAN_POINT('',(0.,0.,35.5));
#283=CARTESIAN_POINT('',(2.5,0.,36.));
#284=CARTESIAN_POINT('',(0.,0.,-9.));
#285=CARTESIAN_POINT('',(-2.01500000000001,0.,-9.));
#286=CARTESIAN_POINT('',(1.99913518934686,0.,-9.));
#287=CARTESIAN_POINT('',(0.,0.,-5.));
#288=CARTESIAN_POINT('',(-2.01500000000001,0.,-5.));
#289=CARTESIAN_POINT('',(0.,0.,0.));
#290=CARTESIAN_POINT('',(0.,0.,-2.02010486761699));
#291=CARTESIAN_POINT('',(-3.,0.,-2.02010486761699));
#292=CARTESIAN_POINT('',(0.,0.,-5.));
#293=CARTESIAN_POINT('',(0.,0.,0.));
#294=CARTESIAN_POINT('',(0.,0.,-14.));
#295=CARTESIAN_POINT('',(-1.955,0.,-14.));
#296=CARTESIAN_POINT('',(0.,0.,-13.8632930826504));
#297=CARTESIAN_POINT('',(0.,0.,-13.8632930826504));
#298=CARTESIAN_POINT('',(0.,0.,-13.955));
#299=CARTESIAN_POINT('',(-2.,0.,-13.955));
#300=CARTESIAN_POINT('',(0.,0.,-14.));
#301=CARTESIAN_POINT('',(0.,0.,-9.));
#302=CARTESIAN_POINT('',(-1.99913518934686,0.,-9.));
#303=CARTESIAN_POINT('',(0.,0.,-13.955));
#304=CARTESIAN_POINT('',(0.,0.,-9.));
#305=MECHANICAL_DESIGN_GEOMETRIC_PRESENTATION_REPRESENTATION('',(#156,#157,
#158,#159,#160,#161,#162,#163,#164,#165),#306);
#306=(
GEOMETRIC_REPRESENTATION_CONTEXT(3)
GLOBAL_UNCERTAINTY_ASSIGNED_CONTEXT((#307))
GLOBAL_UNIT_ASSIGNED_CONTEXT((#313,#309,#308))
REPRESENTATION_CONTEXT('JS754040F1C','TOP_LEVEL_ASSEMBLY_PART')
);
#307=UNCERTAINTY_MEASURE_WITH_UNIT(LENGTH_MEASURE(2.E-5),#313,
'DISTANCE_ACCURACY_VALUE','Maximum Tolerance applied to model');
#308=(
NAMED_UNIT(*)
SI_UNIT($,.STERADIAN.)
SOLID_ANGLE_UNIT()
);
#309=(
CONVERSION_BASED_UNIT('DEGREE',#311)
NAMED_UNIT(#310)
PLANE_ANGLE_UNIT()
);
#310=DIMENSIONAL_EXPONENTS(0.,0.,0.,0.,0.,0.,0.);
#311=PLANE_ANGLE_MEASURE_WITH_UNIT(PLANE_ANGLE_MEASURE(0.0174532925),#312);
#312=(
NAMED_UNIT(*)
PLANE_ANGLE_UNIT()
SI_UNIT($,.RADIAN.)
);
#313=(
LENGTH_UNIT()
NAMED_UNIT(*)
SI_UNIT(.MILLI.,.METRE.)
);
ENDSEC;
END-ISO-10303-21;
