ISO-10303-21;
HEADER;
/* Generated by software containing ST-Developer
 * from STEP Tools, Inc. (www.steptools.com) 
 */
/* OPTION: using custom schema-name function */

FILE_DESCRIPTION(
/* description */ (''),
/* implementation_level */ '2;1');

FILE_NAME(
/* name */ 'XHT740E16160T3R4R1000Z4_Basic.stp',
/* time_stamp */ '2023-03-20T16:08:41+06:00',
/* author */ (''),
/* organization */ (''),
/* preprocessor_version */ 'ST-DEVELOPER v16.7',
/* originating_system */ 'SIEMENS PLM Software NX 12.0',
/* authorisation */ '');

FILE_SCHEMA (('AUTOMOTIVE_DESIGN { 1 0 10303 214 3 1 1 1 }'));
ENDSEC;

DATA;
#10=CONSTRUCTIVE_GEOMETRY_REPRESENTATION_RELATIONSHIP(
'supplemental geometry','',#34,#11);
#11=CONSTRUCTIVE_GEOMETRY_REPRESENTATION('supplemental geometry',(#275,
#276,#277),#512);
#12=GEOMETRICALLY_BOUNDED_WIREFRAME_SHAPE_REPRESENTATION(
'inpu3010496Fsy61-None',(#35),#512);
#13=PROPERTY_DEFINITION_REPRESENTATION(#17,#15);
#14=PROPERTY_DEFINITION_REPRESENTATION(#18,#16);
#15=REPRESENTATION('',(#19),#512);
#16=REPRESENTATION('',(#20),#512);
#17=PROPERTY_DEFINITION('pmi validation property','',#25);
#18=PROPERTY_DEFINITION('pmi validation property','',#25);
#19=VALUE_REPRESENTATION_ITEM('number of annotations',COUNT_MEASURE(0.));
#20=VALUE_REPRESENTATION_ITEM('number of views',COUNT_MEASURE(0.));
#21=SHAPE_REPRESENTATION_RELATIONSHIP('None',
'relationship between inpu3010496Fsy61-None and inpu3010496Fsy61-None',
#34,#23);
#22=SHAPE_REPRESENTATION_RELATIONSHIP('None',
'relationship between inpu3010496Fsy61-None and inpu3010496Fsy61-None',
#34,#12);
#23=ADVANCED_BREP_SHAPE_REPRESENTATION('inpu3010496Fsy61-None',(#49,#50),
#512);
#24=SHAPE_DEFINITION_REPRESENTATION(#25,#34);
#25=PRODUCT_DEFINITION_SHAPE('','',#26);
#26=PRODUCT_DEFINITION(' ','',#28,#27);
#27=PRODUCT_DEFINITION_CONTEXT('part definition',#33,'design');
#28=PRODUCT_DEFINITION_FORMATION_WITH_SPECIFIED_SOURCE(' ',' ',#30,
 .NOT_KNOWN.);
#29=PRODUCT_RELATED_PRODUCT_CATEGORY('part','',(#30));
#30=PRODUCT('inpu3010496Fsy61','inpu3010496Fsy61',' ',(#31));
#31=PRODUCT_CONTEXT(' ',#33,'mechanical');
#32=APPLICATION_PROTOCOL_DEFINITION('international standard',
'automotive_design',2010,#33);
#33=APPLICATION_CONTEXT(
'core data for automotive mechanical design processes');
#34=SHAPE_REPRESENTATION('inpu3010496Fsy61-None',(#274),#512);
#35=GEOMETRIC_CURVE_SET('None',(#383,#384,#385,#386,#239));
#36=(
BOUNDED_SURFACE()
B_SPLINE_SURFACE(3,3,((#449,#450,#451,#452,#453,#454,#455),(#456,#457,#458,
#459,#460,#461,#462),(#463,#464,#465,#466,#467,#468,#469),(#470,#471,#472,
#473,#474,#475,#476)),.UNSPECIFIED.,.F.,.T.,.F.)
B_SPLINE_SURFACE_WITH_KNOTS((4,4),(1,3,3,3,1),(0.,1.),(-0.5,0.,0.5,1.,1.5),
 .UNSPECIFIED.)
GEOMETRIC_REPRESENTATION_ITEM()
RATIONAL_B_SPLINE_SURFACE(((1.,0.333333333333333,0.333333333333333,1.,0.333333333333333,
0.333333333333333,1.),(0.999988956544917,0.333329652181639,0.333329652181639,
0.999988956544917,0.333329652181639,0.333329652181639,0.999988956544917),
(0.999988956544917,0.333329652181639,0.333329652181639,0.999988956544917,
0.333329652181639,0.333329652181639,0.999988956544917),(1.,0.333333333333333,
0.333333333333333,1.,0.333333333333333,0.333333333333333,1.)))
REPRESENTATION_ITEM('')
SURFACE()
);
#37=(
BOUNDED_SURFACE()
B_SPLINE_SURFACE(3,3,((#479,#480,#481,#482,#483,#484,#485),(#486,#487,#488,
#489,#490,#491,#492),(#493,#494,#495,#496,#497,#498,#499),(#500,#501,#502,
#503,#504,#505,#506)),.UNSPECIFIED.,.F.,.T.,.F.)
B_SPLINE_SURFACE_WITH_KNOTS((4,4),(1,3,3,3,1),(0.,1.),(-0.5,0.,0.5,1.,1.5),
 .UNSPECIFIED.)
GEOMETRIC_REPRESENTATION_ITEM()
RATIONAL_B_SPLINE_SURFACE(((1.,0.333333333333333,0.333333333333333,1.,0.333333333333333,
0.333333333333333,1.),(0.990175900327404,0.330058633442468,0.330058633442468,
0.990175900327404,0.330058633442468,0.330058633442468,0.990175900327404),
(0.990175900327404,0.330058633442468,0.330058633442468,0.990175900327404,
0.330058633442468,0.330058633442468,0.990175900327404),(1.,0.333333333333333,
0.333333333333333,1.,0.333333333333333,0.333333333333333,1.)))
REPRESENTATION_ITEM('')
SURFACE()
);
#38=SPHERICAL_SURFACE('',#304,4.);
#39=SURFACE_STYLE_USAGE(.BOTH.,#41);
#40=SURFACE_STYLE_USAGE(.BOTH.,#42);
#41=SURFACE_SIDE_STYLE('',(#43));
#42=SURFACE_SIDE_STYLE('',(#44));
#43=SURFACE_STYLE_FILL_AREA(#45);
#44=SURFACE_STYLE_FILL_AREA(#46);
#45=FILL_AREA_STYLE('',(#47));
#46=FILL_AREA_STYLE('',(#48));
#47=FILL_AREA_STYLE_COLOUR('',#272);
#48=FILL_AREA_STYLE_COLOUR('',#273);
#49=MANIFOLD_SOLID_BREP('NOCUT',#51);
#50=MANIFOLD_SOLID_BREP('CUT',#52);
#51=CLOSED_SHELL('',(#68,#69,#70,#71,#72,#73,#74,#75,#76,#77,#78,#79,#80));
#52=CLOSED_SHELL('',(#81,#82,#83,#84,#85));
#53=FACE_OUTER_BOUND('',#136,.T.);
#54=FACE_OUTER_BOUND('',#137,.T.);
#55=FACE_OUTER_BOUND('',#142,.T.);
#56=FACE_OUTER_BOUND('',#149,.T.);
#57=CONICAL_SURFACE('',#286,5.72434762182978,2.20000000000002);
#58=CONICAL_SURFACE('',#288,5.63155903752234,6.00000000000001);
#59=CONICAL_SURFACE('',#296,3.5,45.);
#60=TOROIDAL_SURFACE('',#284,6.12405278839403,0.4);
#61=TOROIDAL_SURFACE('',#292,4.,0.5);
#62=PLANE('',#282);
#63=PLANE('',#290);
#64=PLANE('',#297);
#65=PLANE('',#299);
#66=PLANE('',#302);
#67=PLANE('',#309);
#68=ADVANCED_FACE('',(#90,#91),#86,.T.);
#69=ADVANCED_FACE('',(#92,#93),#62,.T.);
#70=ADVANCED_FACE('',(#94,#95),#60,.F.);
#71=ADVANCED_FACE('',(#96,#97),#57,.T.);
#72=ADVANCED_FACE('',(#98,#99),#58,.T.);
#73=ADVANCED_FACE('',(#100,#101),#63,.T.);
#74=ADVANCED_FACE('',(#102,#103),#61,.F.);
#75=ADVANCED_FACE('',(#104,#105),#87,.T.);
#76=ADVANCED_FACE('',(#106,#107),#59,.T.);
#77=ADVANCED_FACE('',(#53),#64,.T.);
#78=ADVANCED_FACE('',(#54),#65,.T.);
#79=ADVANCED_FACE('',(#108,#109),#88,.T.);
#80=ADVANCED_FACE('',(#110,#111),#66,.T.);
#81=ADVANCED_FACE('',(#55),#38,.T.);
#82=ADVANCED_FACE('',(#112,#113),#36,.T.);
#83=ADVANCED_FACE('',(#114,#115),#37,.T.);
#84=ADVANCED_FACE('',(#116,#117),#89,.T.);
#85=ADVANCED_FACE('',(#56),#67,.T.);
#86=CYLINDRICAL_SURFACE('',#280,7.75);
#87=CYLINDRICAL_SURFACE('',#294,3.5);
#88=CYLINDRICAL_SURFACE('',#301,7.985);
#89=CYLINDRICAL_SURFACE('',#308,7.98500000000007);
#90=FACE_BOUND('',#118,.T.);
#91=FACE_BOUND('',#119,.T.);
#92=FACE_BOUND('',#120,.T.);
#93=FACE_BOUND('',#121,.T.);
#94=FACE_BOUND('',#122,.T.);
#95=FACE_BOUND('',#123,.T.);
#96=FACE_BOUND('',#124,.T.);
#97=FACE_BOUND('',#125,.T.);
#98=FACE_BOUND('',#126,.T.);
#99=FACE_BOUND('',#127,.T.);
#100=FACE_BOUND('',#128,.T.);
#101=FACE_BOUND('',#129,.T.);
#102=FACE_BOUND('',#130,.T.);
#103=FACE_BOUND('',#131,.T.);
#104=FACE_BOUND('',#132,.T.);
#105=FACE_BOUND('',#133,.T.);
#106=FACE_BOUND('',#134,.T.);
#107=FACE_BOUND('',#135,.T.);
#108=FACE_BOUND('',#138,.T.);
#109=FACE_BOUND('',#139,.T.);
#110=FACE_BOUND('',#140,.T.);
#111=FACE_BOUND('',#141,.T.);
#112=FACE_BOUND('',#143,.T.);
#113=FACE_BOUND('',#144,.T.);
#114=FACE_BOUND('',#145,.T.);
#115=FACE_BOUND('',#146,.T.);
#116=FACE_BOUND('',#147,.T.);
#117=FACE_BOUND('',#148,.T.);
#118=EDGE_LOOP('',(#150));
#119=EDGE_LOOP('',(#151));
#120=EDGE_LOOP('',(#152));
#121=EDGE_LOOP('',(#153));
#122=EDGE_LOOP('',(#154));
#123=EDGE_LOOP('',(#155));
#124=EDGE_LOOP('',(#156));
#125=EDGE_LOOP('',(#157));
#126=EDGE_LOOP('',(#158));
#127=EDGE_LOOP('',(#159));
#128=EDGE_LOOP('',(#160));
#129=EDGE_LOOP('',(#161));
#130=EDGE_LOOP('',(#162));
#131=EDGE_LOOP('',(#163));
#132=EDGE_LOOP('',(#164));
#133=EDGE_LOOP('',(#165));
#134=EDGE_LOOP('',(#166));
#135=EDGE_LOOP('',(#167));
#136=EDGE_LOOP('',(#168));
#137=EDGE_LOOP('',(#169));
#138=EDGE_LOOP('',(#170));
#139=EDGE_LOOP('',(#171));
#140=EDGE_LOOP('',(#172));
#141=EDGE_LOOP('',(#173));
#142=EDGE_LOOP('',(#174));
#143=EDGE_LOOP('',(#175));
#144=EDGE_LOOP('',(#176));
#145=EDGE_LOOP('',(#177));
#146=EDGE_LOOP('',(#178));
#147=EDGE_LOOP('',(#179));
#148=EDGE_LOOP('',(#180));
#149=EDGE_LOOP('',(#181));
#150=ORIENTED_EDGE('',*,*,#198,.T.);
#151=ORIENTED_EDGE('',*,*,#199,.F.);
#152=ORIENTED_EDGE('',*,*,#200,.T.);
#153=ORIENTED_EDGE('',*,*,#198,.F.);
#154=ORIENTED_EDGE('',*,*,#201,.T.);
#155=ORIENTED_EDGE('',*,*,#200,.F.);
#156=ORIENTED_EDGE('',*,*,#202,.T.);
#157=ORIENTED_EDGE('',*,*,#201,.F.);
#158=ORIENTED_EDGE('',*,*,#203,.T.);
#159=ORIENTED_EDGE('',*,*,#202,.F.);
#160=ORIENTED_EDGE('',*,*,#204,.T.);
#161=ORIENTED_EDGE('',*,*,#203,.F.);
#162=ORIENTED_EDGE('',*,*,#205,.T.);
#163=ORIENTED_EDGE('',*,*,#204,.F.);
#164=ORIENTED_EDGE('',*,*,#206,.T.);
#165=ORIENTED_EDGE('',*,*,#205,.F.);
#166=ORIENTED_EDGE('',*,*,#207,.T.);
#167=ORIENTED_EDGE('',*,*,#206,.F.);
#168=ORIENTED_EDGE('',*,*,#207,.F.);
#169=ORIENTED_EDGE('',*,*,#208,.T.);
#170=ORIENTED_EDGE('',*,*,#209,.T.);
#171=ORIENTED_EDGE('',*,*,#208,.F.);
#172=ORIENTED_EDGE('',*,*,#199,.T.);
#173=ORIENTED_EDGE('',*,*,#209,.F.);
#174=ORIENTED_EDGE('',*,*,#210,.T.);
#175=ORIENTED_EDGE('',*,*,#210,.F.);
#176=ORIENTED_EDGE('',*,*,#211,.T.);
#177=ORIENTED_EDGE('',*,*,#211,.F.);
#178=ORIENTED_EDGE('',*,*,#212,.T.);
#179=ORIENTED_EDGE('',*,*,#212,.F.);
#180=ORIENTED_EDGE('',*,*,#213,.T.);
#181=ORIENTED_EDGE('',*,*,#213,.F.);
#182=VERTEX_POINT('',#408);
#183=VERTEX_POINT('',#410);
#184=VERTEX_POINT('',#413);
#185=VERTEX_POINT('',#416);
#186=VERTEX_POINT('',#419);
#187=VERTEX_POINT('',#422);
#188=VERTEX_POINT('',#425);
#189=VERTEX_POINT('',#428);
#190=VERTEX_POINT('',#431);
#191=VERTEX_POINT('',#434);
#192=VERTEX_POINT('',#438);
#193=VERTEX_POINT('',#441);
#194=VERTEX_POINT('',#445);
#195=VERTEX_POINT('',#448);
#196=VERTEX_POINT('',#478);
#197=VERTEX_POINT('',#508);
#198=EDGE_CURVE('',#182,#182,#214,.T.);
#199=EDGE_CURVE('',#183,#183,#215,.T.);
#200=EDGE_CURVE('',#184,#184,#216,.T.);
#201=EDGE_CURVE('',#185,#185,#217,.T.);
#202=EDGE_CURVE('',#186,#186,#218,.T.);
#203=EDGE_CURVE('',#187,#187,#219,.T.);
#204=EDGE_CURVE('',#188,#188,#220,.T.);
#205=EDGE_CURVE('',#189,#189,#221,.T.);
#206=EDGE_CURVE('',#190,#190,#222,.T.);
#207=EDGE_CURVE('',#191,#191,#223,.T.);
#208=EDGE_CURVE('',#192,#192,#224,.T.);
#209=EDGE_CURVE('',#193,#193,#225,.T.);
#210=EDGE_CURVE('',#194,#194,#226,.T.);
#211=EDGE_CURVE('',#195,#195,#227,.T.);
#212=EDGE_CURVE('',#196,#196,#228,.T.);
#213=EDGE_CURVE('',#197,#197,#229,.T.);
#214=CIRCLE('',#278,7.75);
#215=CIRCLE('',#279,7.75);
#216=CIRCLE('',#281,6.12405278839403);
#217=CIRCLE('',#283,5.72434762182978);
#218=CIRCLE('',#285,5.63155903752234);
#219=CIRCLE('',#287,4.55949583781244);
#220=CIRCLE('',#289,4.);
#221=CIRCLE('',#291,3.5);
#222=CIRCLE('',#293,3.5);
#223=CIRCLE('',#295,3.);
#224=CIRCLE('',#298,7.985);
#225=CIRCLE('',#300,7.985);
#226=CIRCLE('',#303,3.7501898056961);
#227=CIRCLE('',#305,7.69244855084594);
#228=CIRCLE('',#306,7.98500000000013);
#229=CIRCLE('',#307,7.985);
#230=CURVE_STYLE('',#235,POSITIVE_LENGTH_MEASURE(0.18),#234);
#231=CURVE_STYLE('',#236,POSITIVE_LENGTH_MEASURE(0.18),#271);
#232=CURVE_STYLE('',#237,POSITIVE_LENGTH_MEASURE(0.18),#271);
#233=CURVE_STYLE('',#238,POSITIVE_LENGTH_MEASURE(0.18),#271);
#234=DRAUGHTING_PRE_DEFINED_COLOUR('blue');
#235=DRAUGHTING_PRE_DEFINED_CURVE_FONT('continuous');
#236=DRAUGHTING_PRE_DEFINED_CURVE_FONT('continuous');
#237=DRAUGHTING_PRE_DEFINED_CURVE_FONT('continuous');
#238=DRAUGHTING_PRE_DEFINED_CURVE_FONT('continuous');
#239=TRIMMED_CURVE('CUTTING PART LINE',#240,(PARAMETER_VALUE(0.)),(
PARAMETER_VALUE(1.)),.T.,.PARAMETER.);
#240=(
BOUNDED_CURVE()
B_SPLINE_CURVE(3,(#387,#388,#389,#390,#391,#392,#393,#394,#395,#396,#397,
#398,#399,#400,#401,#402,#403),.UNSPECIFIED.,.T.,.F.)
B_SPLINE_CURVE_WITH_KNOTS((1,3,3,3,3,2,2,3,1),(-0.192635660764781,0.,0.0876678235151328,
0.493264387951249,0.628209744910515,0.778458595184525,0.807364339235219,
1.,1.08766782351513),.UNSPECIFIED.)
CURVE()
GEOMETRIC_REPRESENTATION_ITEM()
RATIONAL_B_SPLINE_CURVE((0.549169444881364,0.483610185039545,0.483610185039545,
0.549169444881364,0.549169444881364,0.549169444881364,0.549169444881364,
0.549169444881364,0.549169444881364,0.549169444881364,0.549169444881364,
0.549169444881364,0.543774349517706,0.543774349517706,0.549163380153266,
0.549163380153266,0.549169444881364))
REPRESENTATION_ITEM('CUTTING PART LINE')
);
#241=PRESENTATION_LAYER_ASSIGNMENT('1','Layer 1',(#383,#384,#385,#386,#239,
#275,#276,#277,#49,#50));
#242=STYLED_ITEM('',(#252),#383);
#243=STYLED_ITEM('',(#253),#384);
#244=STYLED_ITEM('',(#254),#385);
#245=STYLED_ITEM('',(#255),#386);
#246=STYLED_ITEM('',(#256),#239);
#247=STYLED_ITEM('',(#257),#275);
#248=STYLED_ITEM('',(#258),#276);
#249=STYLED_ITEM('',(#259),#277);
#250=STYLED_ITEM('',(#260),#49);
#251=STYLED_ITEM('',(#261),#50);
#252=PRESENTATION_STYLE_ASSIGNMENT((#262));
#253=PRESENTATION_STYLE_ASSIGNMENT((#263));
#254=PRESENTATION_STYLE_ASSIGNMENT((#264));
#255=PRESENTATION_STYLE_ASSIGNMENT((#265));
#256=PRESENTATION_STYLE_ASSIGNMENT((#230));
#257=PRESENTATION_STYLE_ASSIGNMENT((#231));
#258=PRESENTATION_STYLE_ASSIGNMENT((#232));
#259=PRESENTATION_STYLE_ASSIGNMENT((#233));
#260=PRESENTATION_STYLE_ASSIGNMENT((#39));
#261=PRESENTATION_STYLE_ASSIGNMENT((#40));
#262=POINT_STYLE('',#266,POSITIVE_LENGTH_MEASURE(3.),#270);
#263=POINT_STYLE('',#267,POSITIVE_LENGTH_MEASURE(3.),#271);
#264=POINT_STYLE('',#268,POSITIVE_LENGTH_MEASURE(3.),#271);
#265=POINT_STYLE('',#269,POSITIVE_LENGTH_MEASURE(3.),#271);
#266=PRE_DEFINED_POINT_MARKER_SYMBOL('plus');
#267=PRE_DEFINED_POINT_MARKER_SYMBOL('plus');
#268=PRE_DEFINED_POINT_MARKER_SYMBOL('plus');
#269=PRE_DEFINED_POINT_MARKER_SYMBOL('plus');
#270=COLOUR_RGB('Medium Royal',0.2,0.4,0.8);
#271=COLOUR_RGB('Pale Maroon',0.811749446860456,0.603921568627451,0.611749446860456);
#272=COLOUR_RGB('Medium Gray',0.490196078431373,0.490196078431373,0.490196078431373);
#273=COLOUR_RGB('Light Gray',0.8,0.8,0.8);
#274=AXIS2_PLACEMENT_3D('',#382,#310,#311);
#275=AXIS2_PLACEMENT_3D('MCS',#404,#312,#313);
#276=AXIS2_PLACEMENT_3D('PCS',#405,#314,#315);
#277=AXIS2_PLACEMENT_3D('CIP',#406,#316,#317);
#278=AXIS2_PLACEMENT_3D('',#407,#318,#319);
#279=AXIS2_PLACEMENT_3D('',#409,#320,#321);
#280=AXIS2_PLACEMENT_3D('',#411,#322,#323);
#281=AXIS2_PLACEMENT_3D('',#412,#324,#325);
#282=AXIS2_PLACEMENT_3D('',#414,#326,#327);
#283=AXIS2_PLACEMENT_3D('',#415,#328,#329);
#284=AXIS2_PLACEMENT_3D('',#417,#330,#331);
#285=AXIS2_PLACEMENT_3D('',#418,#332,#333);
#286=AXIS2_PLACEMENT_3D('',#420,#334,#335);
#287=AXIS2_PLACEMENT_3D('',#421,#336,#337);
#288=AXIS2_PLACEMENT_3D('',#423,#338,#339);
#289=AXIS2_PLACEMENT_3D('',#424,#340,#341);
#290=AXIS2_PLACEMENT_3D('',#426,#342,#343);
#291=AXIS2_PLACEMENT_3D('',#427,#344,#345);
#292=AXIS2_PLACEMENT_3D('',#429,#346,#347);
#293=AXIS2_PLACEMENT_3D('',#430,#348,#349);
#294=AXIS2_PLACEMENT_3D('',#432,#350,#351);
#295=AXIS2_PLACEMENT_3D('',#433,#352,#353);
#296=AXIS2_PLACEMENT_3D('',#435,#354,#355);
#297=AXIS2_PLACEMENT_3D('',#436,#356,#357);
#298=AXIS2_PLACEMENT_3D('',#437,#358,#359);
#299=AXIS2_PLACEMENT_3D('',#439,#360,#361);
#300=AXIS2_PLACEMENT_3D('',#440,#362,#363);
#301=AXIS2_PLACEMENT_3D('',#442,#364,#365);
#302=AXIS2_PLACEMENT_3D('',#443,#366,#367);
#303=AXIS2_PLACEMENT_3D('',#444,#368,#369);
#304=AXIS2_PLACEMENT_3D('',#446,#370,#371);
#305=AXIS2_PLACEMENT_3D('',#447,#372,#373);
#306=AXIS2_PLACEMENT_3D('',#477,#374,#375);
#307=AXIS2_PLACEMENT_3D('',#507,#376,#377);
#308=AXIS2_PLACEMENT_3D('',#509,#378,#379);
#309=AXIS2_PLACEMENT_3D('',#510,#380,#381);
#310=DIRECTION('',(0.,0.,1.));
#311=DIRECTION('',(1.,0.,0.));
#312=DIRECTION('',(0.,0.,1.));
#313=DIRECTION('',(1.,0.,0.));
#314=DIRECTION('',(0.,0.,1.));
#315=DIRECTION('',(1.,0.,0.));
#316=DIRECTION('',(0.,0.,1.));
#317=DIRECTION('',(1.,0.,0.));
#318=DIRECTION('',(0.,0.,-1.));
#319=DIRECTION('',(-1.,0.,0.));
#320=DIRECTION('',(0.,0.,-1.));
#321=DIRECTION('',(-1.,0.,0.));
#322=DIRECTION('',(0.,0.,-1.));
#323=DIRECTION('',(-1.,0.,0.));
#324=DIRECTION('',(0.,0.,-1.));
#325=DIRECTION('',(-1.,0.,0.));
#326=DIRECTION('',(0.,0.,1.));
#327=DIRECTION('',(1.,0.,0.));
#328=DIRECTION('',(0.,0.,-1.));
#329=DIRECTION('',(-1.,0.,0.));
#330=DIRECTION('',(0.,0.,-1.));
#331=DIRECTION('',(-1.,0.,0.));
#332=DIRECTION('',(0.,0.,-1.));
#333=DIRECTION('',(-1.,0.,0.));
#334=DIRECTION('',(0.,0.,-1.));
#335=DIRECTION('',(-1.,0.,5.58797810004668E-16));
#336=DIRECTION('',(0.,0.,-1.));
#337=DIRECTION('',(-1.,0.,0.));
#338=DIRECTION('',(0.,0.,-1.));
#339=DIRECTION('',(-1.,0.,2.23232331408449E-16));
#340=DIRECTION('',(0.,0.,-1.));
#341=DIRECTION('',(-1.,0.,0.));
#342=DIRECTION('',(0.,0.,1.));
#343=DIRECTION('',(1.,0.,0.));
#344=DIRECTION('',(0.,0.,-1.));
#345=DIRECTION('',(-1.,0.,0.));
#346=DIRECTION('',(0.,0.,-1.));
#347=DIRECTION('',(-1.,0.,0.));
#348=DIRECTION('',(0.,0.,-1.));
#349=DIRECTION('',(-1.,0.,0.));
#350=DIRECTION('',(0.,0.,-1.));
#351=DIRECTION('',(-1.,0.,0.));
#352=DIRECTION('',(0.,0.,-1.));
#353=DIRECTION('',(-1.,0.,0.));
#354=DIRECTION('',(0.,0.,-1.));
#355=DIRECTION('',(-1.,0.,-4.14881548813586E-17));
#356=DIRECTION('',(0.,0.,1.));
#357=DIRECTION('',(1.,0.,0.));
#358=DIRECTION('',(0.,0.,-1.));
#359=DIRECTION('',(-1.,0.,0.));
#360=DIRECTION('',(0.,0.,-1.));
#361=DIRECTION('',(-1.,0.,0.));
#362=DIRECTION('',(0.,0.,-1.));
#363=DIRECTION('',(1.,0.,0.));
#364=DIRECTION('',(0.,0.,-1.));
#365=DIRECTION('',(-1.,0.,0.));
#366=DIRECTION('',(0.,0.,1.));
#367=DIRECTION('',(1.,0.,0.));
#368=DIRECTION('',(0.,0.,-1.));
#369=DIRECTION('',(-1.,0.,0.));
#370=DIRECTION('',(-6.12323399573677E-17,0.,-1.));
#371=DIRECTION('',(-1.,0.,0.));
#372=DIRECTION('',(0.,0.,-1.));
#373=DIRECTION('',(-1.,0.,0.));
#374=DIRECTION('',(0.,0.,-1.));
#375=DIRECTION('',(-1.,0.,0.));
#376=DIRECTION('',(0.,0.,-1.));
#377=DIRECTION('',(-1.,0.,0.));
#378=DIRECTION('',(0.,0.,-1.));
#379=DIRECTION('',(-1.,0.,0.));
#380=DIRECTION('',(0.,0.,1.));
#381=DIRECTION('',(1.,0.,0.));
#382=CARTESIAN_POINT('',(0.,0.,0.));
#383=CARTESIAN_POINT('CRP',(-8.,0.,-34.1));
#384=CARTESIAN_POINT('',(0.,0.,0.));
#385=CARTESIAN_POINT('',(0.,0.,0.));
#386=CARTESIAN_POINT('',(0.,0.,-34.1));
#387=CARTESIAN_POINT('',(-3.75018980569617,0.,-31.49142963216));
#388=CARTESIAN_POINT('',(-3.14868763273992,0.,-33.1126020328242));
#389=CARTESIAN_POINT('',(-1.7291630393766,0.,-34.1));
#390=CARTESIAN_POINT('',(-6.56392173352712E-16,0.,-34.1));
#391=CARTESIAN_POINT('',(0.,0.,-26.1));
#392=CARTESIAN_POINT('',(0.,0.,-18.1));
#393=CARTESIAN_POINT('',(0.,0.,-10.1));
#394=CARTESIAN_POINT('',(-2.66166666666667,0.,-10.1));
#395=CARTESIAN_POINT('',(-5.32333333333333,0.,-10.1));
#396=CARTESIAN_POINT('',(-7.985,0.,-10.1));
#397=CARTESIAN_POINT('',(-7.98500000000007,0.,-13.063513273006));
#398=CARTESIAN_POINT('',(-7.98500000000007,0.,-16.0270265460121));
#399=CARTESIAN_POINT('',(-7.98500000000007,0.,-19.5663343296862));
#400=CARTESIAN_POINT('',(-7.88651532703864,0.,-20.1336438463586));
#401=CARTESIAN_POINT('',(-6.39912102210547,0.,-24.2885194046452));
#402=CARTESIAN_POINT('',(-5.08502026151011,0.,-27.89378627886));
#403=CARTESIAN_POINT('',(-3.75018980569617,0.,-31.49142963216));
#404=CARTESIAN_POINT('',(0.,0.,0.));
#405=CARTESIAN_POINT('',(0.,0.,0.));
#406=CARTESIAN_POINT('',(0.,0.,-34.1));
#407=CARTESIAN_POINT('',(0.,0.,0.));
#408=CARTESIAN_POINT('',(-7.75,0.,0.));
#409=CARTESIAN_POINT('',(0.,0.,-9.6));
#410=CARTESIAN_POINT('',(-7.75,0.,-9.6));
#411=CARTESIAN_POINT('',(0.,0.,28.));
#412=CARTESIAN_POINT('',(0.,0.,0.));
#413=CARTESIAN_POINT('',(-6.12405278839403,0.,0.));
#414=CARTESIAN_POINT('',(7.75,0.,0.));
#415=CARTESIAN_POINT('',(0.,0.,0.384644876365001));
#416=CARTESIAN_POINT('',(-5.72434762182978,0.,0.384644876365001));
#417=CARTESIAN_POINT('',(0.,0.,0.399999999999998));
#418=CARTESIAN_POINT('',(0.,0.,2.8));
#419=CARTESIAN_POINT('',(-5.63155903752234,0.,2.8));
#420=CARTESIAN_POINT('',(0.,0.,0.384644876365001));
#421=CARTESIAN_POINT('',(0.,0.,13.));
#422=CARTESIAN_POINT('',(-4.55949583781244,0.,13.));
#423=CARTESIAN_POINT('',(0.,0.,2.8));
#424=CARTESIAN_POINT('',(0.,0.,13.));
#425=CARTESIAN_POINT('',(-4.,0.,13.));
#426=CARTESIAN_POINT('',(4.55949583781244,0.,13.));
#427=CARTESIAN_POINT('',(0.,0.,13.5));
#428=CARTESIAN_POINT('',(-3.5,0.,13.5));
#429=CARTESIAN_POINT('',(0.,0.,13.5));
#430=CARTESIAN_POINT('',(0.,0.,16.5));
#431=CARTESIAN_POINT('',(-3.5,0.,16.5));
#432=CARTESIAN_POINT('',(0.,0.,28.));
#433=CARTESIAN_POINT('',(0.,0.,17.));
#434=CARTESIAN_POINT('',(-3.,0.,17.));
#435=CARTESIAN_POINT('',(0.,0.,16.5));
#436=CARTESIAN_POINT('',(3.,0.,17.));
#437=CARTESIAN_POINT('',(0.,0.,-10.1));
#438=CARTESIAN_POINT('',(-7.985,0.,-10.1));
#439=CARTESIAN_POINT('',(8.,0.,-10.1));
#440=CARTESIAN_POINT('',(0.,0.,-9.6));
#441=CARTESIAN_POINT('',(7.985,0.,-9.6));
#442=CARTESIAN_POINT('',(0.,0.,28.));
#443=CARTESIAN_POINT('',(8.05,0.,-9.6));
#444=CARTESIAN_POINT('',(0.,0.,-31.4914296321601));
#445=CARTESIAN_POINT('',(-3.7501898056961,0.,-31.4914296321601));
#446=CARTESIAN_POINT('',(6.93889390390723E-15,0.,-30.1));
#447=CARTESIAN_POINT('',(0.,0.,-20.6757484533245));
#448=CARTESIAN_POINT('',(-7.69244855084594,0.,-20.6757484533245));
#449=CARTESIAN_POINT('',(-3.75018980569652,0.,-31.49142963216));
#450=CARTESIAN_POINT('',(-3.75018980569652,7.50037961139305,-31.49142963216));
#451=CARTESIAN_POINT('',(3.75018980569652,7.50037961139305,-31.49142963216));
#452=CARTESIAN_POINT('',(3.75018980569652,0.,-31.49142963216));
#453=CARTESIAN_POINT('',(3.75018980569652,-7.50037961139305,-31.49142963216));
#454=CARTESIAN_POINT('',(-3.75018980569652,-7.50037961139305,-31.49142963216));
#455=CARTESIAN_POINT('',(-3.75018980569652,0.,-31.49142963216));
#456=CARTESIAN_POINT('',(-5.08502026151007,0.,-27.8937862788605));
#457=CARTESIAN_POINT('',(-5.08502026151007,10.1700405230201,-27.8937862788605));
#458=CARTESIAN_POINT('',(5.08502026151007,10.1700405230201,-27.8937862788605));
#459=CARTESIAN_POINT('',(5.08502026151007,0.,-27.8937862788605));
#460=CARTESIAN_POINT('',(5.08502026151007,-10.1700405230201,-27.8937862788605));
#461=CARTESIAN_POINT('',(-5.08502026151007,-10.1700405230201,-27.8937862788605));
#462=CARTESIAN_POINT('',(-5.08502026151007,0.,-27.8937862788605));
#463=CARTESIAN_POINT('',(-6.39912102210583,0.,-24.2885194046459));
#464=CARTESIAN_POINT('',(-6.39912102210583,12.7982420442117,-24.2885194046459));
#465=CARTESIAN_POINT('',(6.39912102210583,12.7982420442117,-24.2885194046459));
#466=CARTESIAN_POINT('',(6.39912102210583,0.,-24.2885194046459));
#467=CARTESIAN_POINT('',(6.39912102210583,-12.7982420442117,-24.2885194046459));
#468=CARTESIAN_POINT('',(-6.39912102210583,-12.7982420442117,-24.2885194046459));
#469=CARTESIAN_POINT('',(-6.39912102210583,0.,-24.2885194046459));
#470=CARTESIAN_POINT('',(-7.69244855084583,0.,-20.6757484533247));
#471=CARTESIAN_POINT('',(-7.69244855084583,15.3848971016917,-20.6757484533247));
#472=CARTESIAN_POINT('',(7.69244855084583,15.3848971016917,-20.6757484533247));
#473=CARTESIAN_POINT('',(7.69244855084583,0.,-20.6757484533247));
#474=CARTESIAN_POINT('',(7.69244855084583,-15.3848971016917,-20.6757484533247));
#475=CARTESIAN_POINT('',(-7.69244855084583,-15.3848971016917,-20.6757484533247));
#476=CARTESIAN_POINT('',(-7.69244855084583,0.,-20.6757484533247));
#477=CARTESIAN_POINT('',(0.,0.,-18.9905398190181));
#478=CARTESIAN_POINT('',(-7.98500000000013,0.,-18.9905398190181));
#479=CARTESIAN_POINT('',(-7.6924485508458,0.,-20.6757484533245));
#480=CARTESIAN_POINT('',(-7.6924485508458,15.3848971016916,-20.6757484533244));
#481=CARTESIAN_POINT('',(7.6924485508458,15.3848971016916,-20.6757484533244));
#482=CARTESIAN_POINT('',(7.6924485508458,0.,-20.6757484533245));
#483=CARTESIAN_POINT('',(7.6924485508458,-15.3848971016916,-20.6757484533244));
#484=CARTESIAN_POINT('',(-7.6924485508458,-15.3848971016916,-20.6757484533244));
#485=CARTESIAN_POINT('',(-7.6924485508458,0.,-20.6757484533245));
#486=CARTESIAN_POINT('',(-7.88651532703863,0.,-20.1336438463586));
#487=CARTESIAN_POINT('',(-7.88651532703863,15.7730306540773,-20.1336438463586));
#488=CARTESIAN_POINT('',(7.88651532703863,15.7730306540773,-20.1336438463586));
#489=CARTESIAN_POINT('',(7.88651532703863,0.,-20.1336438463586));
#490=CARTESIAN_POINT('',(7.88651532703863,-15.7730306540773,-20.1336438463586));
#491=CARTESIAN_POINT('',(-7.88651532703863,-15.7730306540773,-20.1336438463586));
#492=CARTESIAN_POINT('',(-7.88651532703863,0.,-20.1336438463586));
#493=CARTESIAN_POINT('',(-7.98500000000014,0.,-19.5663343296862));
#494=CARTESIAN_POINT('',(-7.98500000000014,15.9700000000003,-19.5663343296862));
#495=CARTESIAN_POINT('',(7.98500000000014,15.9700000000003,-19.5663343296862));
#496=CARTESIAN_POINT('',(7.98500000000014,0.,-19.5663343296862));
#497=CARTESIAN_POINT('',(7.98500000000014,-15.9700000000003,-19.5663343296862));
#498=CARTESIAN_POINT('',(-7.98500000000014,-15.9700000000003,-19.5663343296862));
#499=CARTESIAN_POINT('',(-7.98500000000014,0.,-19.5663343296862));
#500=CARTESIAN_POINT('',(-7.98500000000014,0.,-18.9905398190181));
#501=CARTESIAN_POINT('',(-7.98500000000014,15.9700000000003,-18.9905398190181));
#502=CARTESIAN_POINT('',(7.98500000000014,15.9700000000003,-18.9905398190181));
#503=CARTESIAN_POINT('',(7.98500000000014,0.,-18.9905398190181));
#504=CARTESIAN_POINT('',(7.98500000000014,-15.9700000000003,-18.9905398190181));
#505=CARTESIAN_POINT('',(-7.98500000000014,-15.9700000000003,-18.9905398190181));
#506=CARTESIAN_POINT('',(-7.98500000000014,0.,-18.9905398190181));
#507=CARTESIAN_POINT('',(0.,0.,-10.1));
#508=CARTESIAN_POINT('',(-7.985,0.,-10.1));
#509=CARTESIAN_POINT('',(0.,0.,28.));
#510=CARTESIAN_POINT('',(0.,0.,-10.1));
#511=MECHANICAL_DESIGN_GEOMETRIC_PRESENTATION_REPRESENTATION('',(#242,#243,
#244,#245,#246,#247,#248,#249,#250,#251),#512);
#512=(
GEOMETRIC_REPRESENTATION_CONTEXT(3)
GLOBAL_UNCERTAINTY_ASSIGNED_CONTEXT((#513))
GLOBAL_UNIT_ASSIGNED_CONTEXT((#519,#515,#514))
REPRESENTATION_CONTEXT('XHT740E16160T3R4R1000Z4_Basic',
'TOP_LEVEL_ASSEMBLY_PART')
);
#513=UNCERTAINTY_MEASURE_WITH_UNIT(LENGTH_MEASURE(0.0254),#519,
'DISTANCE_ACCURACY_VALUE','Maximum Tolerance applied to model');
#514=(
NAMED_UNIT(*)
SI_UNIT($,.STERADIAN.)
SOLID_ANGLE_UNIT()
);
#515=(
CONVERSION_BASED_UNIT('DEGREE',#517)
NAMED_UNIT(#516)
PLANE_ANGLE_UNIT()
);
#516=DIMENSIONAL_EXPONENTS(0.,0.,0.,0.,0.,0.,0.);
#517=PLANE_ANGLE_MEASURE_WITH_UNIT(PLANE_ANGLE_MEASURE(0.0174532925),#518);
#518=(
NAMED_UNIT(*)
PLANE_ANGLE_UNIT()
SI_UNIT($,.RADIAN.)
);
#519=(
LENGTH_UNIT()
NAMED_UNIT(*)
SI_UNIT(.MILLI.,.METRE.)
);
ENDSEC;
END-ISO-10303-21;
