ISO-10303-21;
HEADER;
/* Generated by software containing ST-Developer
 * from STEP Tools, Inc. (www.steptools.com) 
 */
/* OPTION: using custom schema-name function */

FILE_DESCRIPTION(
/* description */ (''),
/* implementation_level */ '2;1');

FILE_NAME(
/* name */ 'XHT740E10100T2R1.5R250Z4_Basic.stp',
/* time_stamp */ '2023-03-20T15:50:19+05:00',
/* author */ (''),
/* organization */ (''),
/* preprocessor_version */ 'ST-DEVELOPER v16.7',
/* originating_system */ 'SIEMENS PLM Software NX 12.0',
/* authorisation */ '');

FILE_SCHEMA (('AUTOMOTIVE_DESIGN { 1 0 10303 214 3 1 1 1 }'));
ENDSEC;

DATA;
#10=CONSTRUCTIVE_GEOMETRY_REPRESENTATION_RELATIONSHIP(
'supplemental geometry','',#34,#11);
#11=CONSTRUCTIVE_GEOMETRY_REPRESENTATION('supplemental geometry',(#275,
#276,#277),#490);
#12=GEOMETRICALLY_BOUNDED_WIREFRAME_SHAPE_REPRESENTATION(
'inpu3010496Fsy31-None',(#35),#490);
#13=PROPERTY_DEFINITION_REPRESENTATION(#17,#15);
#14=PROPERTY_DEFINITION_REPRESENTATION(#18,#16);
#15=REPRESENTATION('',(#19),#490);
#16=REPRESENTATION('',(#20),#490);
#17=PROPERTY_DEFINITION('pmi validation property','',#25);
#18=PROPERTY_DEFINITION('pmi validation property','',#25);
#19=VALUE_REPRESENTATION_ITEM('number of annotations',COUNT_MEASURE(0.));
#20=VALUE_REPRESENTATION_ITEM('number of views',COUNT_MEASURE(0.));
#21=SHAPE_REPRESENTATION_RELATIONSHIP('None',
'relationship between inpu3010496Fsy31-None and inpu3010496Fsy31-None',
#34,#23);
#22=SHAPE_REPRESENTATION_RELATIONSHIP('None',
'relationship between inpu3010496Fsy31-None and inpu3010496Fsy31-None',
#34,#12);
#23=ADVANCED_BREP_SHAPE_REPRESENTATION('inpu3010496Fsy31-None',(#48,#49),
#490);
#24=SHAPE_DEFINITION_REPRESENTATION(#25,#34);
#25=PRODUCT_DEFINITION_SHAPE('','',#26);
#26=PRODUCT_DEFINITION(' ','',#28,#27);
#27=PRODUCT_DEFINITION_CONTEXT('part definition',#33,'design');
#28=PRODUCT_DEFINITION_FORMATION_WITH_SPECIFIED_SOURCE(' ',' ',#30,
 .NOT_KNOWN.);
#29=PRODUCT_RELATED_PRODUCT_CATEGORY('part','',(#30));
#30=PRODUCT('inpu3010496Fsy31','inpu3010496Fsy31',' ',(#31));
#31=PRODUCT_CONTEXT(' ',#33,'mechanical');
#32=APPLICATION_PROTOCOL_DEFINITION('international standard',
'automotive_design',2010,#33);
#33=APPLICATION_CONTEXT(
'core data for automotive mechanical design processes');
#34=SHAPE_REPRESENTATION('inpu3010496Fsy31-None',(#274),#490);
#35=GEOMETRIC_CURVE_SET('None',(#386,#387,#388,#389,#239));
#36=(
BOUNDED_SURFACE()
B_SPLINE_SURFACE(3,3,((#454,#455,#456,#457,#458,#459,#460),(#461,#462,#463,
#464,#465,#466,#467),(#468,#469,#470,#471,#472,#473,#474),(#475,#476,#477,
#478,#479,#480,#481)),.UNSPECIFIED.,.F.,.T.,.F.)
B_SPLINE_SURFACE_WITH_KNOTS((4,4),(1,3,3,3,1),(0.,1.),(-0.5,0.,0.5,1.,1.5),
 .UNSPECIFIED.)
GEOMETRIC_REPRESENTATION_ITEM()
RATIONAL_B_SPLINE_SURFACE(((1.,0.333333333333333,0.333333333333333,1.,0.333333333333333,
0.333333333333333,1.),(0.999983075597726,0.333327691865909,0.333327691865909,
0.999983075597726,0.333327691865909,0.333327691865909,0.999983075597726),
(0.999983075597726,0.333327691865909,0.333327691865909,0.999983075597726,
0.333327691865909,0.333327691865909,0.999983075597726),(1.,0.333333333333333,
0.333333333333333,1.,0.333333333333333,0.333333333333333,1.)))
REPRESENTATION_ITEM('')
SURFACE()
);
#37=SPHERICAL_SURFACE('',#304,1.5);
#38=SURFACE_STYLE_USAGE(.BOTH.,#40);
#39=SURFACE_STYLE_USAGE(.BOTH.,#41);
#40=SURFACE_SIDE_STYLE('',(#42));
#41=SURFACE_SIDE_STYLE('',(#43));
#42=SURFACE_STYLE_FILL_AREA(#44);
#43=SURFACE_STYLE_FILL_AREA(#45);
#44=FILL_AREA_STYLE('',(#46));
#45=FILL_AREA_STYLE('',(#47));
#46=FILL_AREA_STYLE_COLOUR('',#272);
#47=FILL_AREA_STYLE_COLOUR('',#273);
#48=MANIFOLD_SOLID_BREP('NOCUT',#50);
#49=MANIFOLD_SOLID_BREP('CUT',#51);
#50=CLOSED_SHELL('',(#68,#69,#70,#71,#72,#73,#74,#75,#76,#77,#78,#79,#80));
#51=CLOSED_SHELL('',(#81,#82,#83,#84,#85));
#52=FACE_OUTER_BOUND('',#136,.T.);
#53=FACE_OUTER_BOUND('',#137,.T.);
#54=FACE_OUTER_BOUND('',#142,.T.);
#55=FACE_OUTER_BOUND('',#149,.T.);
#56=CONICAL_SURFACE('',#286,3.61383370074949,2.20000000000007);
#57=CONICAL_SURFACE('',#288,3.54424226251891,6.00000000000001);
#58=CONICAL_SURFACE('',#296,2.2,44.9999999999999);
#59=TOROIDAL_SURFACE('',#284,3.91361257567267,0.3);
#60=TOROIDAL_SURFACE('',#292,2.7,0.5);
#61=TOROIDAL_SURFACE('',#307,3.00000000000001,2.);
#62=PLANE('',#282);
#63=PLANE('',#290);
#64=PLANE('',#297);
#65=PLANE('',#299);
#66=PLANE('',#302);
#67=PLANE('',#310);
#68=ADVANCED_FACE('',(#90,#91),#86,.T.);
#69=ADVANCED_FACE('',(#92,#93),#62,.T.);
#70=ADVANCED_FACE('',(#94,#95),#59,.F.);
#71=ADVANCED_FACE('',(#96,#97),#56,.T.);
#72=ADVANCED_FACE('',(#98,#99),#57,.T.);
#73=ADVANCED_FACE('',(#100,#101),#63,.T.);
#74=ADVANCED_FACE('',(#102,#103),#60,.F.);
#75=ADVANCED_FACE('',(#104,#105),#87,.T.);
#76=ADVANCED_FACE('',(#106,#107),#58,.T.);
#77=ADVANCED_FACE('',(#52),#64,.T.);
#78=ADVANCED_FACE('',(#53),#65,.T.);
#79=ADVANCED_FACE('',(#108,#109),#88,.T.);
#80=ADVANCED_FACE('',(#110,#111),#66,.T.);
#81=ADVANCED_FACE('',(#54),#37,.T.);
#82=ADVANCED_FACE('',(#112,#113),#36,.T.);
#83=ADVANCED_FACE('',(#114,#115),#61,.T.);
#84=ADVANCED_FACE('',(#116,#117),#89,.T.);
#85=ADVANCED_FACE('',(#55),#67,.T.);
#86=CYLINDRICAL_SURFACE('',#280,4.85);
#87=CYLINDRICAL_SURFACE('',#294,2.2);
#88=CYLINDRICAL_SURFACE('',#301,5.);
#89=CYLINDRICAL_SURFACE('',#309,5.);
#90=FACE_BOUND('',#118,.T.);
#91=FACE_BOUND('',#119,.T.);
#92=FACE_BOUND('',#120,.T.);
#93=FACE_BOUND('',#121,.T.);
#94=FACE_BOUND('',#122,.T.);
#95=FACE_BOUND('',#123,.T.);
#96=FACE_BOUND('',#124,.T.);
#97=FACE_BOUND('',#125,.T.);
#98=FACE_BOUND('',#126,.T.);
#99=FACE_BOUND('',#127,.T.);
#100=FACE_BOUND('',#128,.T.);
#101=FACE_BOUND('',#129,.T.);
#102=FACE_BOUND('',#130,.T.);
#103=FACE_BOUND('',#131,.T.);
#104=FACE_BOUND('',#132,.T.);
#105=FACE_BOUND('',#133,.T.);
#106=FACE_BOUND('',#134,.T.);
#107=FACE_BOUND('',#135,.T.);
#108=FACE_BOUND('',#138,.T.);
#109=FACE_BOUND('',#139,.T.);
#110=FACE_BOUND('',#140,.T.);
#111=FACE_BOUND('',#141,.T.);
#112=FACE_BOUND('',#143,.T.);
#113=FACE_BOUND('',#144,.T.);
#114=FACE_BOUND('',#145,.T.);
#115=FACE_BOUND('',#146,.T.);
#116=FACE_BOUND('',#147,.T.);
#117=FACE_BOUND('',#148,.T.);
#118=EDGE_LOOP('',(#150));
#119=EDGE_LOOP('',(#151));
#120=EDGE_LOOP('',(#152));
#121=EDGE_LOOP('',(#153));
#122=EDGE_LOOP('',(#154));
#123=EDGE_LOOP('',(#155));
#124=EDGE_LOOP('',(#156));
#125=EDGE_LOOP('',(#157));
#126=EDGE_LOOP('',(#158));
#127=EDGE_LOOP('',(#159));
#128=EDGE_LOOP('',(#160));
#129=EDGE_LOOP('',(#161));
#130=EDGE_LOOP('',(#162));
#131=EDGE_LOOP('',(#163));
#132=EDGE_LOOP('',(#164));
#133=EDGE_LOOP('',(#165));
#134=EDGE_LOOP('',(#166));
#135=EDGE_LOOP('',(#167));
#136=EDGE_LOOP('',(#168));
#137=EDGE_LOOP('',(#169));
#138=EDGE_LOOP('',(#170));
#139=EDGE_LOOP('',(#171));
#140=EDGE_LOOP('',(#172));
#141=EDGE_LOOP('',(#173));
#142=EDGE_LOOP('',(#174));
#143=EDGE_LOOP('',(#175));
#144=EDGE_LOOP('',(#176));
#145=EDGE_LOOP('',(#177));
#146=EDGE_LOOP('',(#178));
#147=EDGE_LOOP('',(#179));
#148=EDGE_LOOP('',(#180));
#149=EDGE_LOOP('',(#181));
#150=ORIENTED_EDGE('',*,*,#198,.T.);
#151=ORIENTED_EDGE('',*,*,#199,.F.);
#152=ORIENTED_EDGE('',*,*,#200,.T.);
#153=ORIENTED_EDGE('',*,*,#198,.F.);
#154=ORIENTED_EDGE('',*,*,#201,.T.);
#155=ORIENTED_EDGE('',*,*,#200,.F.);
#156=ORIENTED_EDGE('',*,*,#202,.T.);
#157=ORIENTED_EDGE('',*,*,#201,.F.);
#158=ORIENTED_EDGE('',*,*,#203,.T.);
#159=ORIENTED_EDGE('',*,*,#202,.F.);
#160=ORIENTED_EDGE('',*,*,#204,.T.);
#161=ORIENTED_EDGE('',*,*,#203,.F.);
#162=ORIENTED_EDGE('',*,*,#205,.T.);
#163=ORIENTED_EDGE('',*,*,#204,.F.);
#164=ORIENTED_EDGE('',*,*,#206,.T.);
#165=ORIENTED_EDGE('',*,*,#205,.F.);
#166=ORIENTED_EDGE('',*,*,#207,.T.);
#167=ORIENTED_EDGE('',*,*,#206,.F.);
#168=ORIENTED_EDGE('',*,*,#207,.F.);
#169=ORIENTED_EDGE('',*,*,#208,.T.);
#170=ORIENTED_EDGE('',*,*,#209,.T.);
#171=ORIENTED_EDGE('',*,*,#208,.F.);
#172=ORIENTED_EDGE('',*,*,#199,.T.);
#173=ORIENTED_EDGE('',*,*,#209,.F.);
#174=ORIENTED_EDGE('',*,*,#210,.T.);
#175=ORIENTED_EDGE('',*,*,#211,.T.);
#176=ORIENTED_EDGE('',*,*,#210,.F.);
#177=ORIENTED_EDGE('',*,*,#212,.T.);
#178=ORIENTED_EDGE('',*,*,#211,.F.);
#179=ORIENTED_EDGE('',*,*,#212,.F.);
#180=ORIENTED_EDGE('',*,*,#213,.T.);
#181=ORIENTED_EDGE('',*,*,#213,.F.);
#182=VERTEX_POINT('',#413);
#183=VERTEX_POINT('',#415);
#184=VERTEX_POINT('',#418);
#185=VERTEX_POINT('',#421);
#186=VERTEX_POINT('',#424);
#187=VERTEX_POINT('',#427);
#188=VERTEX_POINT('',#430);
#189=VERTEX_POINT('',#433);
#190=VERTEX_POINT('',#436);
#191=VERTEX_POINT('',#439);
#192=VERTEX_POINT('',#443);
#193=VERTEX_POINT('',#446);
#194=VERTEX_POINT('',#450);
#195=VERTEX_POINT('',#453);
#196=VERTEX_POINT('',#483);
#197=VERTEX_POINT('',#486);
#198=EDGE_CURVE('',#182,#182,#214,.T.);
#199=EDGE_CURVE('',#183,#183,#215,.T.);
#200=EDGE_CURVE('',#184,#184,#216,.T.);
#201=EDGE_CURVE('',#185,#185,#217,.T.);
#202=EDGE_CURVE('',#186,#186,#218,.T.);
#203=EDGE_CURVE('',#187,#187,#219,.T.);
#204=EDGE_CURVE('',#188,#188,#220,.T.);
#205=EDGE_CURVE('',#189,#189,#221,.T.);
#206=EDGE_CURVE('',#190,#190,#222,.T.);
#207=EDGE_CURVE('',#191,#191,#223,.T.);
#208=EDGE_CURVE('',#192,#192,#224,.T.);
#209=EDGE_CURVE('',#193,#193,#225,.T.);
#210=EDGE_CURVE('',#194,#194,#226,.T.);
#211=EDGE_CURVE('',#195,#195,#227,.T.);
#212=EDGE_CURVE('',#196,#196,#228,.T.);
#213=EDGE_CURVE('',#197,#197,#229,.T.);
#214=CIRCLE('',#278,4.85);
#215=CIRCLE('',#279,4.85);
#216=CIRCLE('',#281,3.91361257567267);
#217=CIRCLE('',#283,3.61383370074949);
#218=CIRCLE('',#285,3.54424226251891);
#219=CIRCLE('',#287,2.95565854503112);
#220=CIRCLE('',#289,2.7);
#221=CIRCLE('',#291,2.2);
#222=CIRCLE('',#293,2.2);
#223=CIRCLE('',#295,1.7);
#224=CIRCLE('',#298,5.);
#225=CIRCLE('',#300,5.);
#226=CIRCLE('',#303,0.620740245681033);
#227=CIRCLE('',#305,3.85351586586956);
#228=CIRCLE('',#306,5.);
#229=CIRCLE('',#308,5.);
#230=CURVE_STYLE('',#235,POSITIVE_LENGTH_MEASURE(0.18),#234);
#231=CURVE_STYLE('',#236,POSITIVE_LENGTH_MEASURE(0.18),#271);
#232=CURVE_STYLE('',#237,POSITIVE_LENGTH_MEASURE(0.18),#271);
#233=CURVE_STYLE('',#238,POSITIVE_LENGTH_MEASURE(0.18),#271);
#234=DRAUGHTING_PRE_DEFINED_COLOUR('blue');
#235=DRAUGHTING_PRE_DEFINED_CURVE_FONT('continuous');
#236=DRAUGHTING_PRE_DEFINED_CURVE_FONT('continuous');
#237=DRAUGHTING_PRE_DEFINED_CURVE_FONT('continuous');
#238=DRAUGHTING_PRE_DEFINED_CURVE_FONT('continuous');
#239=TRIMMED_CURVE('CUTTING PART LINE',#240,(PARAMETER_VALUE(0.)),(
PARAMETER_VALUE(1.)),.T.,.PARAMETER.);
#240=(
BOUNDED_CURVE()
B_SPLINE_CURVE(3,(#390,#391,#392,#393,#394,#395,#396,#397,#398,#399,#400,
#401,#402,#403,#404,#405,#406,#407,#408),.UNSPECIFIED.,.T.,.F.)
B_SPLINE_CURVE_WITH_KNOTS((1,3,3,3,3,3,3,3,1),(-0.173539799683765,0.,0.0352076137265132,
0.330022494597761,0.602180305920571,0.709539186712986,0.826460200316235,
1.,1.03520761372651),.UNSPECIFIED.)
CURVE()
GEOMETRIC_REPRESENTATION_ITEM()
RATIONAL_B_SPLINE_CURVE((0.505731969813749,0.498089343395417,0.498089343395417,
0.505731969813749,0.505731969813749,0.505731969813749,0.505731969813749,
0.505731969813749,0.505731969813749,0.505731969813749,0.505731969813749,
0.505731969813749,0.505731969813749,0.453338050824085,0.453338050824085,
0.505731969813749,0.505723490748479,0.505723490748479,0.505731969813749))
REPRESENTATION_ITEM('CUTTING PART LINE')
);
#241=PRESENTATION_LAYER_ASSIGNMENT('1','Layer 1',(#386,#387,#388,#389,#239,
#275,#276,#277,#48,#49));
#242=STYLED_ITEM('',(#252),#386);
#243=STYLED_ITEM('',(#253),#387);
#244=STYLED_ITEM('',(#254),#388);
#245=STYLED_ITEM('',(#255),#389);
#246=STYLED_ITEM('',(#256),#239);
#247=STYLED_ITEM('',(#257),#275);
#248=STYLED_ITEM('',(#258),#276);
#249=STYLED_ITEM('',(#259),#277);
#250=STYLED_ITEM('',(#260),#48);
#251=STYLED_ITEM('',(#261),#49);
#252=PRESENTATION_STYLE_ASSIGNMENT((#262));
#253=PRESENTATION_STYLE_ASSIGNMENT((#263));
#254=PRESENTATION_STYLE_ASSIGNMENT((#264));
#255=PRESENTATION_STYLE_ASSIGNMENT((#265));
#256=PRESENTATION_STYLE_ASSIGNMENT((#230));
#257=PRESENTATION_STYLE_ASSIGNMENT((#231));
#258=PRESENTATION_STYLE_ASSIGNMENT((#232));
#259=PRESENTATION_STYLE_ASSIGNMENT((#233));
#260=PRESENTATION_STYLE_ASSIGNMENT((#38));
#261=PRESENTATION_STYLE_ASSIGNMENT((#39));
#262=POINT_STYLE('',#266,POSITIVE_LENGTH_MEASURE(3.),#270);
#263=POINT_STYLE('',#267,POSITIVE_LENGTH_MEASURE(3.),#271);
#264=POINT_STYLE('',#268,POSITIVE_LENGTH_MEASURE(3.),#271);
#265=POINT_STYLE('',#269,POSITIVE_LENGTH_MEASURE(3.),#271);
#266=PRE_DEFINED_POINT_MARKER_SYMBOL('plus');
#267=PRE_DEFINED_POINT_MARKER_SYMBOL('plus');
#268=PRE_DEFINED_POINT_MARKER_SYMBOL('plus');
#269=PRE_DEFINED_POINT_MARKER_SYMBOL('plus');
#270=COLOUR_RGB('Medium Royal',0.2,0.4,0.8);
#271=COLOUR_RGB('Pale Maroon',0.811749446860456,0.603921568627451,0.611749446860456);
#272=COLOUR_RGB('Medium Gray',0.490196078431373,0.490196078431373,0.490196078431373);
#273=COLOUR_RGB('Light Gray',0.8,0.8,0.8);
#274=AXIS2_PLACEMENT_3D('',#385,#311,#312);
#275=AXIS2_PLACEMENT_3D('MCS',#409,#313,#314);
#276=AXIS2_PLACEMENT_3D('PCS',#410,#315,#316);
#277=AXIS2_PLACEMENT_3D('CIP',#411,#317,#318);
#278=AXIS2_PLACEMENT_3D('',#412,#319,#320);
#279=AXIS2_PLACEMENT_3D('',#414,#321,#322);
#280=AXIS2_PLACEMENT_3D('',#416,#323,#324);
#281=AXIS2_PLACEMENT_3D('',#417,#325,#326);
#282=AXIS2_PLACEMENT_3D('',#419,#327,#328);
#283=AXIS2_PLACEMENT_3D('',#420,#329,#330);
#284=AXIS2_PLACEMENT_3D('',#422,#331,#332);
#285=AXIS2_PLACEMENT_3D('',#423,#333,#334);
#286=AXIS2_PLACEMENT_3D('',#425,#335,#336);
#287=AXIS2_PLACEMENT_3D('',#426,#337,#338);
#288=AXIS2_PLACEMENT_3D('',#428,#339,#340);
#289=AXIS2_PLACEMENT_3D('',#429,#341,#342);
#290=AXIS2_PLACEMENT_3D('',#431,#343,#344);
#291=AXIS2_PLACEMENT_3D('',#432,#345,#346);
#292=AXIS2_PLACEMENT_3D('',#434,#347,#348);
#293=AXIS2_PLACEMENT_3D('',#435,#349,#350);
#294=AXIS2_PLACEMENT_3D('',#437,#351,#352);
#295=AXIS2_PLACEMENT_3D('',#438,#353,#354);
#296=AXIS2_PLACEMENT_3D('',#440,#355,#356);
#297=AXIS2_PLACEMENT_3D('',#441,#357,#358);
#298=AXIS2_PLACEMENT_3D('',#442,#359,#360);
#299=AXIS2_PLACEMENT_3D('',#444,#361,#362);
#300=AXIS2_PLACEMENT_3D('',#445,#363,#364);
#301=AXIS2_PLACEMENT_3D('',#447,#365,#366);
#302=AXIS2_PLACEMENT_3D('',#448,#367,#368);
#303=AXIS2_PLACEMENT_3D('',#449,#369,#370);
#304=AXIS2_PLACEMENT_3D('',#451,#371,#372);
#305=AXIS2_PLACEMENT_3D('',#452,#373,#374);
#306=AXIS2_PLACEMENT_3D('',#482,#375,#376);
#307=AXIS2_PLACEMENT_3D('',#484,#377,#378);
#308=AXIS2_PLACEMENT_3D('',#485,#379,#380);
#309=AXIS2_PLACEMENT_3D('',#487,#381,#382);
#310=AXIS2_PLACEMENT_3D('',#488,#383,#384);
#311=DIRECTION('',(0.,0.,1.));
#312=DIRECTION('',(1.,0.,0.));
#313=DIRECTION('',(0.,0.,1.));
#314=DIRECTION('',(1.,0.,0.));
#315=DIRECTION('',(0.,0.,1.));
#316=DIRECTION('',(1.,0.,0.));
#317=DIRECTION('',(0.,0.,1.));
#318=DIRECTION('',(1.,0.,0.));
#319=DIRECTION('',(0.,0.,-1.));
#320=DIRECTION('',(-1.,0.,0.));
#321=DIRECTION('',(0.,0.,-1.));
#322=DIRECTION('',(-1.,0.,0.));
#323=DIRECTION('',(0.,0.,-1.));
#324=DIRECTION('',(-1.,0.,0.));
#325=DIRECTION('',(0.,0.,-1.));
#326=DIRECTION('',(-1.,0.,0.));
#327=DIRECTION('',(0.,0.,1.));
#328=DIRECTION('',(1.,0.,0.));
#329=DIRECTION('',(0.,0.,-1.));
#330=DIRECTION('',(-1.,0.,0.));
#331=DIRECTION('',(0.,0.,-1.));
#332=DIRECTION('',(-1.,0.,0.));
#333=DIRECTION('',(0.,0.,-1.));
#334=DIRECTION('',(-1.,0.,0.));
#335=DIRECTION('',(0.,0.,-1.));
#336=DIRECTION('',(-1.,0.,9.86694595866658E-16));
#337=DIRECTION('',(0.,0.,-1.));
#338=DIRECTION('',(-1.,0.,0.));
#339=DIRECTION('',(0.,0.,-1.));
#340=DIRECTION('',(-1.,0.,-8.78151202385366E-17));
#341=DIRECTION('',(0.,0.,-1.));
#342=DIRECTION('',(-1.,0.,0.));
#343=DIRECTION('',(0.,0.,1.));
#344=DIRECTION('',(1.,0.,0.));
#345=DIRECTION('',(0.,0.,-1.));
#346=DIRECTION('',(-1.,0.,0.));
#347=DIRECTION('',(0.,0.,-1.));
#348=DIRECTION('',(-1.,0.,0.));
#349=DIRECTION('',(0.,0.,-1.));
#350=DIRECTION('',(-1.,0.,0.));
#351=DIRECTION('',(0.,0.,-1.));
#352=DIRECTION('',(-1.,0.,0.));
#353=DIRECTION('',(0.,0.,-1.));
#354=DIRECTION('',(-1.,0.,0.));
#355=DIRECTION('',(0.,0.,-1.));
#356=DIRECTION('',(-1.,0.,4.32728865490125E-17));
#357=DIRECTION('',(0.,0.,1.));
#358=DIRECTION('',(1.,0.,0.));
#359=DIRECTION('',(0.,0.,-1.));
#360=DIRECTION('',(-1.,0.,0.));
#361=DIRECTION('',(0.,0.,-1.));
#362=DIRECTION('',(-1.,0.,0.));
#363=DIRECTION('',(0.,0.,-1.));
#364=DIRECTION('',(1.,0.,0.));
#365=DIRECTION('',(0.,0.,-1.));
#366=DIRECTION('',(-1.,0.,0.));
#367=DIRECTION('',(0.,0.,1.));
#368=DIRECTION('',(1.,0.,0.));
#369=DIRECTION('',(0.,0.,-1.));
#370=DIRECTION('',(-1.,0.,0.));
#371=DIRECTION('',(-6.12323399573677E-17,0.,-1.));
#372=DIRECTION('',(-1.,0.,0.));
#373=DIRECTION('',(0.,0.,-1.));
#374=DIRECTION('',(1.,0.,0.));
#375=DIRECTION('',(0.,0.,-1.));
#376=DIRECTION('',(-1.,0.,0.));
#377=DIRECTION('',(0.,0.,-1.));
#378=DIRECTION('',(-1.,0.,0.));
#379=DIRECTION('',(0.,0.,-1.));
#380=DIRECTION('',(1.,0.,0.));
#381=DIRECTION('',(0.,0.,-1.));
#382=DIRECTION('',(-1.,0.,0.));
#383=DIRECTION('',(0.,0.,1.));
#384=DIRECTION('',(1.,0.,0.));
#385=CARTESIAN_POINT('',(0.,0.,0.));
#386=CARTESIAN_POINT('CRP',(-5.,0.,-18.7));
#387=CARTESIAN_POINT('',(0.,0.,0.));
#388=CARTESIAN_POINT('',(0.,0.,0.));
#389=CARTESIAN_POINT('',(0.,0.,-18.7));
#390=CARTESIAN_POINT('',(-0.620740245681058,0.,-18.5655334296134));
#391=CARTESIAN_POINT('',(-0.425049281730824,0.,-18.6544900632671));
#392=CARTESIAN_POINT('',(-0.214961010517649,0.,-18.7));
#393=CARTESIAN_POINT('',(4.82436794902991E-16,0.,-18.7));
#394=CARTESIAN_POINT('',(1.03482654527951E-15,0.,-16.9));
#395=CARTESIAN_POINT('',(9.24608333356252E-16,0.,-15.1));
#396=CARTESIAN_POINT('',(8.1439012143299E-16,0.,-13.3));
#397=CARTESIAN_POINT('',(-1.66166666666667,0.,-13.3));
#398=CARTESIAN_POINT('',(-3.32333333333333,0.,-13.3));
#399=CARTESIAN_POINT('',(-4.985,0.,-13.3));
#400=CARTESIAN_POINT('',(-4.985,0.,-13.9554824670154));
#401=CARTESIAN_POINT('',(-4.985,0.,-14.6109649340309));
#402=CARTESIAN_POINT('',(-4.985,0.,-15.2664474010463));
#403=CARTESIAN_POINT('',(-4.985,0.,-16.0628156038104));
#404=CARTESIAN_POINT('',(-4.55862586579383,0.,-16.7354279825648));
#405=CARTESIAN_POINT('',(-3.83839489812746,0.,-17.0752362631997));
#406=CARTESIAN_POINT('',(-2.76937548416492,0.,-17.5796045357844));
#407=CARTESIAN_POINT('',(-1.69680595072705,0.,-18.0763785868));
#408=CARTESIAN_POINT('',(-0.620740245681058,0.,-18.5655334296134));
#409=CARTESIAN_POINT('',(0.,0.,0.));
#410=CARTESIAN_POINT('',(0.,0.,0.));
#411=CARTESIAN_POINT('',(0.,0.,-18.7));
#412=CARTESIAN_POINT('',(0.,0.,0.));
#413=CARTESIAN_POINT('',(-4.85,0.,0.));
#414=CARTESIAN_POINT('',(0.,0.,-6.2));
#415=CARTESIAN_POINT('',(-4.85,0.,-6.2));
#416=CARTESIAN_POINT('',(0.,0.,24.));
#417=CARTESIAN_POINT('',(0.,0.,0.));
#418=CARTESIAN_POINT('',(-3.91361257567267,0.,0.));
#419=CARTESIAN_POINT('',(4.85,0.,0.));
#420=CARTESIAN_POINT('',(0.,0.,0.2884836572737));
#421=CARTESIAN_POINT('',(-3.61383370074949,0.,0.2884836572737));
#422=CARTESIAN_POINT('',(0.,0.,0.300000000000002));
#423=CARTESIAN_POINT('',(0.,0.,2.1));
#424=CARTESIAN_POINT('',(-3.54424226251891,0.,2.1));
#425=CARTESIAN_POINT('',(0.,0.,0.2884836572737));
#426=CARTESIAN_POINT('',(0.,0.,7.7));
#427=CARTESIAN_POINT('',(-2.95565854503112,0.,7.7));
#428=CARTESIAN_POINT('',(0.,0.,2.1));
#429=CARTESIAN_POINT('',(0.,0.,7.7));
#430=CARTESIAN_POINT('',(-2.7,0.,7.7));
#431=CARTESIAN_POINT('',(2.95565854503112,0.,7.7));
#432=CARTESIAN_POINT('',(0.,0.,8.2));
#433=CARTESIAN_POINT('',(-2.2,0.,8.2));
#434=CARTESIAN_POINT('',(0.,0.,8.2));
#435=CARTESIAN_POINT('',(0.,0.,10.7));
#436=CARTESIAN_POINT('',(-2.2,0.,10.7));
#437=CARTESIAN_POINT('',(0.,0.,24.));
#438=CARTESIAN_POINT('',(0.,0.,11.2));
#439=CARTESIAN_POINT('',(-1.7,0.,11.2));
#440=CARTESIAN_POINT('',(0.,0.,10.7));
#441=CARTESIAN_POINT('',(1.7,0.,11.2));
#442=CARTESIAN_POINT('',(0.,0.,-13.3));
#443=CARTESIAN_POINT('',(-5.,0.,-13.3));
#444=CARTESIAN_POINT('',(5.,0.,-13.3));
#445=CARTESIAN_POINT('',(0.,0.,-6.2));
#446=CARTESIAN_POINT('',(5.,0.,-6.2));
#447=CARTESIAN_POINT('',(0.,0.,24.));
#448=CARTESIAN_POINT('',(5.05,0.,-6.2));
#449=CARTESIAN_POINT('',(0.,0.,-18.5655334296134));
#450=CARTESIAN_POINT('',(-0.620740245681033,0.,-18.5655334296134));
#451=CARTESIAN_POINT('',(0.,0.,-17.2));
#452=CARTESIAN_POINT('',(0.,0.,-17.0681015029247));
#453=CARTESIAN_POINT('',(-3.85351586586956,0.,-17.0681015029247));
#454=CARTESIAN_POINT('',(-0.620740245681178,0.,-18.5655334296134));
#455=CARTESIAN_POINT('',(-0.620740245681178,1.24148049136236,-18.5655334296134));
#456=CARTESIAN_POINT('',(0.620740245681178,1.24148049136236,-18.5655334296134));
#457=CARTESIAN_POINT('',(0.620740245681178,0.,-18.5655334296134));
#458=CARTESIAN_POINT('',(0.620740245681178,-1.24148049136236,-18.5655334296134));
#459=CARTESIAN_POINT('',(-0.620740245681178,-1.24148049136236,-18.5655334296134));
#460=CARTESIAN_POINT('',(-0.620740245681178,0.,-18.5655334296134));
#461=CARTESIAN_POINT('',(-1.7018797041353,0.,-18.0740721746179));
#462=CARTESIAN_POINT('',(-1.7018797041353,3.4037594082706,-18.0740721746179));
#463=CARTESIAN_POINT('',(1.7018797041353,3.4037594082706,-18.0740721746179));
#464=CARTESIAN_POINT('',(1.7018797041353,0.,-18.0740721746179));
#465=CARTESIAN_POINT('',(1.7018797041353,-3.4037594082706,-18.0740721746179));
#466=CARTESIAN_POINT('',(-1.7018797041353,-3.4037594082706,-18.0740721746179));
#467=CARTESIAN_POINT('',(-1.7018797041353,0.,-18.0740721746179));
#468=CARTESIAN_POINT('',(-2.77948981543848,0.,-17.5749197511985));
#469=CARTESIAN_POINT('',(-2.77948981543848,5.55897963087697,-17.5749197511985));
#470=CARTESIAN_POINT('',(2.77948981543848,5.55897963087697,-17.5749197511985));
#471=CARTESIAN_POINT('',(2.77948981543848,0.,-17.5749197511985));
#472=CARTESIAN_POINT('',(2.77948981543848,-5.55897963087697,-17.5749197511985));
#473=CARTESIAN_POINT('',(-2.77948981543848,-5.55897963087697,-17.5749197511985));
#474=CARTESIAN_POINT('',(-2.77948981543848,0.,-17.5749197511985));
#475=CARTESIAN_POINT('',(-3.85351586586967,0.,-17.0681015029246));
#476=CARTESIAN_POINT('',(-3.85351586586967,7.70703173173934,-17.0681015029246));
#477=CARTESIAN_POINT('',(3.85351586586967,7.70703173173934,-17.0681015029246));
#478=CARTESIAN_POINT('',(3.85351586586967,0.,-17.0681015029246));
#479=CARTESIAN_POINT('',(3.85351586586967,-7.70703173173934,-17.0681015029246));
#480=CARTESIAN_POINT('',(-3.85351586586967,-7.70703173173934,-17.0681015029246));
#481=CARTESIAN_POINT('',(-3.85351586586967,0.,-17.0681015029246));
#482=CARTESIAN_POINT('',(0.,0.,-15.2593697188536));
#483=CARTESIAN_POINT('',(-5.,0.,-15.2593697188536));
#484=CARTESIAN_POINT('',(0.,0.,-15.2593697188536));
#485=CARTESIAN_POINT('',(0.,0.,-13.3));
#486=CARTESIAN_POINT('',(5.,0.,-13.3));
#487=CARTESIAN_POINT('',(0.,0.,24.));
#488=CARTESIAN_POINT('',(0.,0.,-13.3));
#489=MECHANICAL_DESIGN_GEOMETRIC_PRESENTATION_REPRESENTATION('',(#242,#243,
#244,#245,#246,#247,#248,#249,#250,#251),#490);
#490=(
GEOMETRIC_REPRESENTATION_CONTEXT(3)
GLOBAL_UNCERTAINTY_ASSIGNED_CONTEXT((#491))
GLOBAL_UNIT_ASSIGNED_CONTEXT((#497,#493,#492))
REPRESENTATION_CONTEXT('XHT740E10100T2R1','TOP_LEVEL_ASSEMBLY_PART')
);
#491=UNCERTAINTY_MEASURE_WITH_UNIT(LENGTH_MEASURE(0.0254),#497,
'DISTANCE_ACCURACY_VALUE','Maximum Tolerance applied to model');
#492=(
NAMED_UNIT(*)
SI_UNIT($,.STERADIAN.)
SOLID_ANGLE_UNIT()
);
#493=(
CONVERSION_BASED_UNIT('DEGREE',#495)
NAMED_UNIT(#494)
PLANE_ANGLE_UNIT()
);
#494=DIMENSIONAL_EXPONENTS(0.,0.,0.,0.,0.,0.,0.);
#495=PLANE_ANGLE_MEASURE_WITH_UNIT(PLANE_ANGLE_MEASURE(0.0174532925),#496);
#496=(
NAMED_UNIT(*)
PLANE_ANGLE_UNIT()
SI_UNIT($,.RADIAN.)
);
#497=(
LENGTH_UNIT()
NAMED_UNIT(*)
SI_UNIT(.MILLI.,.METRE.)
);
ENDSEC;
END-ISO-10303-21;
