ISO-10303-21;
HEADER;
/* Generated by software containing ST-Developer
 * from STEP Tools, Inc. (www.steptools.com) 
 */
/* OPTION: using custom schema-name function */

FILE_DESCRIPTION(
/* description */ (''),
/* implementation_level */ '2;1');

FILE_NAME(
/* name */ 'XSE550E251.00D2R120Z5_Basic.stp',
/* time_stamp */ '2022-07-03T15:47:20+05:00',
/* author */ (''),
/* organization */ (''),
/* preprocessor_version */ 'ST-DEVELOPER v16.7',
/* originating_system */ 'SIEMENS PLM Software NX 12.0',
/* authorisation */ '');

FILE_SCHEMA (('AUTOMOTIVE_DESIGN { 1 0 10303 214 3 1 1 1 }'));
ENDSEC;

DATA;
#10=CONSTRUCTIVE_GEOMETRY_REPRESENTATION_RELATIONSHIP(
'supplemental geometry','',#34,#11);
#11=CONSTRUCTIVE_GEOMETRY_REPRESENTATION('supplemental geometry',(#264,
#265,#266),#443);
#12=GEOMETRICALLY_BOUNDED_WIREFRAME_SHAPE_REPRESENTATION(
'inpu61B4C276fsgd-None',(#35),#443);
#13=PROPERTY_DEFINITION_REPRESENTATION(#17,#15);
#14=PROPERTY_DEFINITION_REPRESENTATION(#18,#16);
#15=REPRESENTATION('',(#19),#443);
#16=REPRESENTATION('',(#20),#443);
#17=PROPERTY_DEFINITION('pmi validation property','',#25);
#18=PROPERTY_DEFINITION('pmi validation property','',#25);
#19=VALUE_REPRESENTATION_ITEM('number of annotations',COUNT_MEASURE(0.));
#20=VALUE_REPRESENTATION_ITEM('number of views',COUNT_MEASURE(0.));
#21=SHAPE_REPRESENTATION_RELATIONSHIP('None',
'relationship between inpu61B4C276fsgd-None and inpu61B4C276fsgd-None',
#34,#23);
#22=SHAPE_REPRESENTATION_RELATIONSHIP('None',
'relationship between inpu61B4C276fsgd-None and inpu61B4C276fsgd-None',
#34,#12);
#23=ADVANCED_BREP_SHAPE_REPRESENTATION('inpu61B4C276fsgd-None',(#46,#47),
#443);
#24=SHAPE_DEFINITION_REPRESENTATION(#25,#34);
#25=PRODUCT_DEFINITION_SHAPE('','',#26);
#26=PRODUCT_DEFINITION(' ','',#28,#27);
#27=PRODUCT_DEFINITION_CONTEXT('part definition',#33,'design');
#28=PRODUCT_DEFINITION_FORMATION_WITH_SPECIFIED_SOURCE(' ',' ',#30,
 .NOT_KNOWN.);
#29=PRODUCT_RELATED_PRODUCT_CATEGORY('part','',(#30));
#30=PRODUCT('inpu61B4C276fsgd','inpu61B4C276fsgd',' ',(#31));
#31=PRODUCT_CONTEXT(' ',#33,'mechanical');
#32=APPLICATION_PROTOCOL_DEFINITION('international standard',
'automotive_design',2010,#33);
#33=APPLICATION_CONTEXT(
'core data for automotive mechanical design processes');
#34=SHAPE_REPRESENTATION('inpu61B4C276fsgd-None',(#263),#443);
#35=GEOMETRIC_CURVE_SET('None',(#372,#373,#374,#375,#228));
#36=SURFACE_STYLE_USAGE(.BOTH.,#38);
#37=SURFACE_STYLE_USAGE(.BOTH.,#39);
#38=SURFACE_SIDE_STYLE('',(#40));
#39=SURFACE_SIDE_STYLE('',(#41));
#40=SURFACE_STYLE_FILL_AREA(#42);
#41=SURFACE_STYLE_FILL_AREA(#43);
#42=FILL_AREA_STYLE('',(#44));
#43=FILL_AREA_STYLE('',(#45));
#44=FILL_AREA_STYLE_COLOUR('',#261);
#45=FILL_AREA_STYLE_COLOUR('',#262);
#46=MANIFOLD_SOLID_BREP('NOCUT',#48);
#47=MANIFOLD_SOLID_BREP('CUT',#49);
#48=CLOSED_SHELL('',(#68,#69,#70,#71,#72,#73,#74,#75,#76,#77,#78,#79,#80));
#49=CLOSED_SHELL('',(#81,#82,#83,#84));
#50=FACE_OUTER_BOUND('',#128,.T.);
#51=FACE_OUTER_BOUND('',#137,.T.);
#52=FACE_OUTER_BOUND('',#138,.T.);
#53=FACE_OUTER_BOUND('',#139,.T.);
#54=CYLINDRICAL_SURFACE('',#277,12.25);
#55=CYLINDRICAL_SURFACE('',#281,12.7);
#56=CYLINDRICAL_SURFACE('',#287,5.2);
#57=CYLINDRICAL_SURFACE('',#298,12.7);
#58=PLANE('',#275);
#59=PLANE('',#279);
#60=PLANE('',#283);
#61=PLANE('',#290);
#62=PLANE('',#291);
#63=PLANE('',#293);
#64=PLANE('',#295);
#65=TOROIDAL_SURFACE('',#273,9.29176085088544,0.399999999999999);
#66=TOROIDAL_SURFACE('',#289,5.7,0.499999999999999);
#67=TOROIDAL_SURFACE('',#297,9.65199999999999,3.048);
#68=ADVANCED_FACE('',(#88,#89),#85,.T.);
#69=ADVANCED_FACE('',(#90,#91),#86,.T.);
#70=ADVANCED_FACE('',(#92,#93),#65,.F.);
#71=ADVANCED_FACE('',(#94,#95),#58,.F.);
#72=ADVANCED_FACE('',(#96,#97),#54,.T.);
#73=ADVANCED_FACE('',(#98,#99),#59,.F.);
#74=ADVANCED_FACE('',(#100,#101),#55,.T.);
#75=ADVANCED_FACE('',(#50),#60,.F.);
#76=ADVANCED_FACE('',(#102,#103),#87,.T.);
#77=ADVANCED_FACE('',(#104,#105),#56,.T.);
#78=ADVANCED_FACE('',(#106,#107),#66,.F.);
#79=ADVANCED_FACE('',(#108,#109),#61,.F.);
#80=ADVANCED_FACE('',(#51),#62,.F.);
#81=ADVANCED_FACE('',(#52),#63,.T.);
#82=ADVANCED_FACE('',(#53),#64,.F.);
#83=ADVANCED_FACE('',(#110,#111),#67,.T.);
#84=ADVANCED_FACE('',(#112,#113),#57,.T.);
#85=CONICAL_SURFACE('',#269,7.15739615855782,6.00000000000001);
#86=CONICAL_SURFACE('',#271,8.73395968754297,2.20000000000008);
#87=CONICAL_SURFACE('',#285,4.7,45.);
#88=FACE_BOUND('',#114,.T.);
#89=FACE_BOUND('',#115,.T.);
#90=FACE_BOUND('',#116,.T.);
#91=FACE_BOUND('',#117,.T.);
#92=FACE_BOUND('',#118,.T.);
#93=FACE_BOUND('',#119,.T.);
#94=FACE_BOUND('',#120,.T.);
#95=FACE_BOUND('',#121,.T.);
#96=FACE_BOUND('',#122,.T.);
#97=FACE_BOUND('',#123,.T.);
#98=FACE_BOUND('',#124,.T.);
#99=FACE_BOUND('',#125,.T.);
#100=FACE_BOUND('',#126,.T.);
#101=FACE_BOUND('',#127,.T.);
#102=FACE_BOUND('',#129,.T.);
#103=FACE_BOUND('',#130,.T.);
#104=FACE_BOUND('',#131,.T.);
#105=FACE_BOUND('',#132,.T.);
#106=FACE_BOUND('',#133,.T.);
#107=FACE_BOUND('',#134,.T.);
#108=FACE_BOUND('',#135,.T.);
#109=FACE_BOUND('',#136,.T.);
#110=FACE_BOUND('',#140,.T.);
#111=FACE_BOUND('',#141,.T.);
#112=FACE_BOUND('',#142,.T.);
#113=FACE_BOUND('',#143,.T.);
#114=EDGE_LOOP('',(#144));
#115=EDGE_LOOP('',(#145));
#116=EDGE_LOOP('',(#146));
#117=EDGE_LOOP('',(#147));
#118=EDGE_LOOP('',(#148));
#119=EDGE_LOOP('',(#149));
#120=EDGE_LOOP('',(#150));
#121=EDGE_LOOP('',(#151));
#122=EDGE_LOOP('',(#152));
#123=EDGE_LOOP('',(#153));
#124=EDGE_LOOP('',(#154));
#125=EDGE_LOOP('',(#155));
#126=EDGE_LOOP('',(#156));
#127=EDGE_LOOP('',(#157));
#128=EDGE_LOOP('',(#158));
#129=EDGE_LOOP('',(#159));
#130=EDGE_LOOP('',(#160));
#131=EDGE_LOOP('',(#161));
#132=EDGE_LOOP('',(#162));
#133=EDGE_LOOP('',(#163));
#134=EDGE_LOOP('',(#164));
#135=EDGE_LOOP('',(#165));
#136=EDGE_LOOP('',(#166));
#137=EDGE_LOOP('',(#167));
#138=EDGE_LOOP('',(#168));
#139=EDGE_LOOP('',(#169));
#140=EDGE_LOOP('',(#170));
#141=EDGE_LOOP('',(#171));
#142=EDGE_LOOP('',(#172));
#143=EDGE_LOOP('',(#173));
#144=ORIENTED_EDGE('',*,*,#189,.F.);
#145=ORIENTED_EDGE('',*,*,#190,.T.);
#146=ORIENTED_EDGE('',*,*,#191,.F.);
#147=ORIENTED_EDGE('',*,*,#189,.T.);
#148=ORIENTED_EDGE('',*,*,#192,.F.);
#149=ORIENTED_EDGE('',*,*,#191,.T.);
#150=ORIENTED_EDGE('',*,*,#193,.F.);
#151=ORIENTED_EDGE('',*,*,#192,.T.);
#152=ORIENTED_EDGE('',*,*,#194,.F.);
#153=ORIENTED_EDGE('',*,*,#193,.T.);
#154=ORIENTED_EDGE('',*,*,#195,.F.);
#155=ORIENTED_EDGE('',*,*,#194,.T.);
#156=ORIENTED_EDGE('',*,*,#196,.T.);
#157=ORIENTED_EDGE('',*,*,#195,.T.);
#158=ORIENTED_EDGE('',*,*,#197,.F.);
#159=ORIENTED_EDGE('',*,*,#198,.F.);
#160=ORIENTED_EDGE('',*,*,#197,.T.);
#161=ORIENTED_EDGE('',*,*,#199,.F.);
#162=ORIENTED_EDGE('',*,*,#198,.T.);
#163=ORIENTED_EDGE('',*,*,#200,.F.);
#164=ORIENTED_EDGE('',*,*,#199,.T.);
#165=ORIENTED_EDGE('',*,*,#190,.F.);
#166=ORIENTED_EDGE('',*,*,#200,.T.);
#167=ORIENTED_EDGE('',*,*,#196,.F.);
#168=ORIENTED_EDGE('',*,*,#201,.T.);
#169=ORIENTED_EDGE('',*,*,#202,.T.);
#170=ORIENTED_EDGE('',*,*,#203,.T.);
#171=ORIENTED_EDGE('',*,*,#202,.F.);
#172=ORIENTED_EDGE('',*,*,#201,.F.);
#173=ORIENTED_EDGE('',*,*,#203,.F.);
#174=VERTEX_POINT('',#396);
#175=VERTEX_POINT('',#398);
#176=VERTEX_POINT('',#401);
#177=VERTEX_POINT('',#404);
#178=VERTEX_POINT('',#407);
#179=VERTEX_POINT('',#410);
#180=VERTEX_POINT('',#413);
#181=VERTEX_POINT('',#416);
#182=VERTEX_POINT('',#419);
#183=VERTEX_POINT('',#422);
#184=VERTEX_POINT('',#425);
#185=VERTEX_POINT('',#428);
#186=VERTEX_POINT('',#433);
#187=VERTEX_POINT('',#436);
#188=VERTEX_POINT('',#439);
#189=EDGE_CURVE('',#174,#174,#204,.T.);
#190=EDGE_CURVE('',#175,#175,#205,.T.);
#191=EDGE_CURVE('',#176,#176,#206,.T.);
#192=EDGE_CURVE('',#177,#177,#207,.T.);
#193=EDGE_CURVE('',#178,#178,#208,.T.);
#194=EDGE_CURVE('',#179,#179,#209,.T.);
#195=EDGE_CURVE('',#180,#180,#210,.T.);
#196=EDGE_CURVE('',#181,#181,#211,.T.);
#197=EDGE_CURVE('',#182,#182,#212,.T.);
#198=EDGE_CURVE('',#183,#183,#213,.T.);
#199=EDGE_CURVE('',#184,#184,#214,.T.);
#200=EDGE_CURVE('',#185,#185,#215,.T.);
#201=EDGE_CURVE('',#186,#186,#216,.T.);
#202=EDGE_CURVE('',#187,#187,#217,.T.);
#203=EDGE_CURVE('',#188,#188,#218,.T.);
#204=CIRCLE('',#267,8.73395968754297);
#205=CIRCLE('',#268,7.15739615855782);
#206=CIRCLE('',#270,8.89205568432119);
#207=CIRCLE('',#272,9.29176085088544);
#208=CIRCLE('',#274,12.25);
#209=CIRCLE('',#276,12.25);
#210=CIRCLE('',#278,12.7);
#211=CIRCLE('',#280,12.7);
#212=CIRCLE('',#282,4.7);
#213=CIRCLE('',#284,5.2);
#214=CIRCLE('',#286,5.2);
#215=CIRCLE('',#288,5.7);
#216=CIRCLE('',#292,12.7);
#217=CIRCLE('',#294,9.652);
#218=CIRCLE('',#296,12.7);
#219=CURVE_STYLE('',#224,POSITIVE_LENGTH_MEASURE(0.18),#223);
#220=CURVE_STYLE('',#225,POSITIVE_LENGTH_MEASURE(0.18),#259);
#221=CURVE_STYLE('',#226,POSITIVE_LENGTH_MEASURE(0.18),#259);
#222=CURVE_STYLE('',#227,POSITIVE_LENGTH_MEASURE(0.18),#259);
#223=DRAUGHTING_PRE_DEFINED_COLOUR('blue');
#224=DRAUGHTING_PRE_DEFINED_CURVE_FONT('continuous');
#225=DRAUGHTING_PRE_DEFINED_CURVE_FONT('continuous');
#226=DRAUGHTING_PRE_DEFINED_CURVE_FONT('continuous');
#227=DRAUGHTING_PRE_DEFINED_CURVE_FONT('continuous');
#228=TRIMMED_CURVE('CUTTING PART LINE',#229,(PARAMETER_VALUE(0.)),(
PARAMETER_VALUE(1.)),.T.,.PARAMETER.);
#229=(
BOUNDED_CURVE()
B_SPLINE_CURVE(3,(#376,#377,#378,#379,#380,#381,#382,#383,#384,#385,#386,
#387,#388,#389,#390,#391),.UNSPECIFIED.,.T.,.F.)
B_SPLINE_CURVE_WITH_KNOTS((4,3,3,3,3,4),(0.,0.165497622519506,0.522972487161639,
0.57914424291546,0.680362716138324,1.),.UNSPECIFIED.)
CURVE()
GEOMETRIC_REPRESENTATION_ITEM()
RATIONAL_B_SPLINE_CURVE((1.,1.,1.,1.,1.,1.,1.,0.804737854124366,0.804737854124366,
1.,1.,1.,1.,1.,1.,1.))
REPRESENTATION_ITEM('CUTTING PART LINE')
);
#230=PRESENTATION_LAYER_ASSIGNMENT('1','Layer 1',(#372,#373,#374,#375,#228,
#264,#265,#266,#46,#47));
#231=STYLED_ITEM('',(#241),#372);
#232=STYLED_ITEM('',(#242),#373);
#233=STYLED_ITEM('',(#243),#374);
#234=STYLED_ITEM('',(#244),#375);
#235=STYLED_ITEM('',(#245),#228);
#236=STYLED_ITEM('',(#246),#264);
#237=STYLED_ITEM('',(#247),#265);
#238=STYLED_ITEM('',(#248),#266);
#239=STYLED_ITEM('',(#249),#46);
#240=STYLED_ITEM('',(#250),#47);
#241=PRESENTATION_STYLE_ASSIGNMENT((#251));
#242=PRESENTATION_STYLE_ASSIGNMENT((#252));
#243=PRESENTATION_STYLE_ASSIGNMENT((#253));
#244=PRESENTATION_STYLE_ASSIGNMENT((#254));
#245=PRESENTATION_STYLE_ASSIGNMENT((#219));
#246=PRESENTATION_STYLE_ASSIGNMENT((#220));
#247=PRESENTATION_STYLE_ASSIGNMENT((#221));
#248=PRESENTATION_STYLE_ASSIGNMENT((#222));
#249=PRESENTATION_STYLE_ASSIGNMENT((#36));
#250=PRESENTATION_STYLE_ASSIGNMENT((#37));
#251=POINT_STYLE('',#255,POSITIVE_LENGTH_MEASURE(3.),#259);
#252=POINT_STYLE('',#256,POSITIVE_LENGTH_MEASURE(3.),#259);
#253=POINT_STYLE('',#257,POSITIVE_LENGTH_MEASURE(3.),#259);
#254=POINT_STYLE('',#258,POSITIVE_LENGTH_MEASURE(3.),#260);
#255=PRE_DEFINED_POINT_MARKER_SYMBOL('plus');
#256=PRE_DEFINED_POINT_MARKER_SYMBOL('plus');
#257=PRE_DEFINED_POINT_MARKER_SYMBOL('plus');
#258=PRE_DEFINED_POINT_MARKER_SYMBOL('plus');
#259=COLOUR_RGB('Pale Maroon',0.811749446860456,0.603921568627451,0.611749446860456);
#260=COLOUR_RGB('Medium Royal',0.2,0.4,0.8);
#261=COLOUR_RGB('Medium Gray',0.490196078431373,0.490196078431373,0.490196078431373);
#262=COLOUR_RGB('Light Gray',0.8,0.8,0.8);
#263=AXIS2_PLACEMENT_3D('',#371,#299,#300);
#264=AXIS2_PLACEMENT_3D('MCS',#392,#301,#302);
#265=AXIS2_PLACEMENT_3D('PCS',#393,#303,#304);
#266=AXIS2_PLACEMENT_3D('CIP',#394,#305,#306);
#267=AXIS2_PLACEMENT_3D('',#395,#307,#308);
#268=AXIS2_PLACEMENT_3D('',#397,#309,#310);
#269=AXIS2_PLACEMENT_3D('',#399,#311,#312);
#270=AXIS2_PLACEMENT_3D('',#400,#313,#314);
#271=AXIS2_PLACEMENT_3D('',#402,#315,#316);
#272=AXIS2_PLACEMENT_3D('',#403,#317,#318);
#273=AXIS2_PLACEMENT_3D('',#405,#319,#320);
#274=AXIS2_PLACEMENT_3D('',#406,#321,#322);
#275=AXIS2_PLACEMENT_3D('',#408,#323,#324);
#276=AXIS2_PLACEMENT_3D('',#409,#325,#326);
#277=AXIS2_PLACEMENT_3D('',#411,#327,#328);
#278=AXIS2_PLACEMENT_3D('',#412,#329,#330);
#279=AXIS2_PLACEMENT_3D('',#414,#331,#332);
#280=AXIS2_PLACEMENT_3D('',#415,#333,#334);
#281=AXIS2_PLACEMENT_3D('',#417,#335,#336);
#282=AXIS2_PLACEMENT_3D('',#418,#337,#338);
#283=AXIS2_PLACEMENT_3D('',#420,#339,#340);
#284=AXIS2_PLACEMENT_3D('',#421,#341,#342);
#285=AXIS2_PLACEMENT_3D('',#423,#343,#344);
#286=AXIS2_PLACEMENT_3D('',#424,#345,#346);
#287=AXIS2_PLACEMENT_3D('',#426,#347,#348);
#288=AXIS2_PLACEMENT_3D('',#427,#349,#350);
#289=AXIS2_PLACEMENT_3D('',#429,#351,#352);
#290=AXIS2_PLACEMENT_3D('',#430,#353,#354);
#291=AXIS2_PLACEMENT_3D('',#431,#355,#356);
#292=AXIS2_PLACEMENT_3D('',#432,#357,#358);
#293=AXIS2_PLACEMENT_3D('',#434,#359,#360);
#294=AXIS2_PLACEMENT_3D('',#435,#361,#362);
#295=AXIS2_PLACEMENT_3D('',#437,#363,#364);
#296=AXIS2_PLACEMENT_3D('',#438,#365,#366);
#297=AXIS2_PLACEMENT_3D('',#440,#367,#368);
#298=AXIS2_PLACEMENT_3D('',#441,#369,#370);
#299=DIRECTION('',(0.,0.,1.));
#300=DIRECTION('',(1.,0.,0.));
#301=DIRECTION('',(0.,0.,1.));
#302=DIRECTION('',(1.,0.,0.));
#303=DIRECTION('',(0.,0.,1.));
#304=DIRECTION('',(1.,0.,0.));
#305=DIRECTION('',(0.,0.,1.));
#306=DIRECTION('',(1.,0.,0.));
#307=DIRECTION('',(0.,0.,-1.));
#308=DIRECTION('',(-1.,0.,0.));
#309=DIRECTION('',(0.,0.,-1.));
#310=DIRECTION('',(-1.,0.,0.));
#311=DIRECTION('',(0.,0.,-1.));
#312=DIRECTION('',(1.,0.,-3.39955120795181E-16));
#313=DIRECTION('',(0.,0.,-1.));
#314=DIRECTION('',(-1.,0.,0.));
#315=DIRECTION('',(0.,0.,-1.));
#316=DIRECTION('',(1.,0.,-1.17732877086768E-15));
#317=DIRECTION('',(0.,0.,-1.));
#318=DIRECTION('',(-1.,0.,0.));
#319=DIRECTION('',(0.,0.,-1.));
#320=DIRECTION('',(1.,0.,0.));
#321=DIRECTION('',(0.,0.,-1.));
#322=DIRECTION('',(-1.,0.,0.));
#323=DIRECTION('',(0.,0.,-1.));
#324=DIRECTION('',(1.,0.,0.));
#325=DIRECTION('',(0.,0.,-1.));
#326=DIRECTION('',(-1.,0.,0.));
#327=DIRECTION('',(0.,0.,-1.));
#328=DIRECTION('',(1.,0.,0.));
#329=DIRECTION('',(0.,0.,-1.));
#330=DIRECTION('',(-1.,0.,0.));
#331=DIRECTION('',(0.,0.,-1.));
#332=DIRECTION('',(1.,0.,0.));
#333=DIRECTION('',(0.,0.,1.));
#334=DIRECTION('',(1.,0.,0.));
#335=DIRECTION('',(0.,0.,-1.));
#336=DIRECTION('',(1.,0.,0.));
#337=DIRECTION('',(0.,0.,-1.));
#338=DIRECTION('',(-1.,0.,0.));
#339=DIRECTION('',(0.,0.,-1.));
#340=DIRECTION('',(1.,0.,0.));
#341=DIRECTION('',(0.,0.,-1.));
#342=DIRECTION('',(-1.,0.,0.));
#343=DIRECTION('',(0.,0.,-1.));
#344=DIRECTION('',(1.,0.,2.07193009970356E-17));
#345=DIRECTION('',(0.,0.,-1.));
#346=DIRECTION('',(-1.,0.,0.));
#347=DIRECTION('',(0.,0.,-1.));
#348=DIRECTION('',(1.,0.,0.));
#349=DIRECTION('',(0.,0.,-1.));
#350=DIRECTION('',(-1.,0.,0.));
#351=DIRECTION('',(0.,0.,-1.));
#352=DIRECTION('',(1.,0.,0.));
#353=DIRECTION('',(0.,0.,-1.));
#354=DIRECTION('',(1.,0.,0.));
#355=DIRECTION('',(0.,0.,1.));
#356=DIRECTION('',(-1.,0.,0.));
#357=DIRECTION('',(0.,0.,1.));
#358=DIRECTION('',(1.,0.,0.));
#359=DIRECTION('',(0.,0.,1.));
#360=DIRECTION('',(-1.,0.,0.));
#361=DIRECTION('',(0.,0.,-1.));
#362=DIRECTION('',(-1.,0.,0.));
#363=DIRECTION('',(0.,0.,1.));
#364=DIRECTION('',(-1.,0.,0.));
#365=DIRECTION('',(0.,0.,-1.));
#366=DIRECTION('',(-1.,0.,0.));
#367=DIRECTION('',(0.,0.,-1.));
#368=DIRECTION('',(1.,0.,0.));
#369=DIRECTION('',(0.,0.,-1.));
#370=DIRECTION('',(1.,0.,0.));
#371=CARTESIAN_POINT('',(0.,0.,0.));
#372=CARTESIAN_POINT('',(0.,0.,0.));
#373=CARTESIAN_POINT('',(0.,0.,0.));
#374=CARTESIAN_POINT('',(0.,0.,-42.5));
#375=CARTESIAN_POINT('CRP',(-12.7,0.,-42.5));
#376=CARTESIAN_POINT('',(0.,0.,-12.02));
#377=CARTESIAN_POINT('',(-4.23333333333333,0.,-12.02));
#378=CARTESIAN_POINT('',(-8.46666666666667,0.,-12.02));
#379=CARTESIAN_POINT('',(-12.7,0.,-12.02));
#380=CARTESIAN_POINT('',(-12.7,0.,-21.164));
#381=CARTESIAN_POINT('',(-12.7,0.,-30.308));
#382=CARTESIAN_POINT('',(-12.7,0.,-39.452));
#383=CARTESIAN_POINT('',(-12.7,0.,-41.2374770618868));
#384=CARTESIAN_POINT('',(-11.4374770618868,0.,-42.5));
#385=CARTESIAN_POINT('',(-9.652,0.,-42.5));
#386=CARTESIAN_POINT('',(-6.43466666666667,0.,-42.5));
#387=CARTESIAN_POINT('',(-3.21733333333333,0.,-42.5));
#388=CARTESIAN_POINT('',(0.,0.,-42.5));
#389=CARTESIAN_POINT('',(0.,0.,-32.34));
#390=CARTESIAN_POINT('',(0.,0.,-22.18));
#391=CARTESIAN_POINT('',(0.,0.,-12.02));
#392=CARTESIAN_POINT('',(0.,0.,0.));
#393=CARTESIAN_POINT('',(0.,0.,0.));
#394=CARTESIAN_POINT('',(0.,0.,-42.5));
#395=CARTESIAN_POINT('',(0.,0.,4.5));
#396=CARTESIAN_POINT('',(-8.73395968754297,0.,4.5));
#397=CARTESIAN_POINT('',(0.,0.,19.5));
#398=CARTESIAN_POINT('',(-7.15739615855782,0.,19.5));
#399=CARTESIAN_POINT('',(0.,0.,19.5));
#400=CARTESIAN_POINT('',(0.,0.,0.384644876365005));
#401=CARTESIAN_POINT('',(-8.89205568432119,0.,0.384644876365005));
#402=CARTESIAN_POINT('',(0.,0.,4.5));
#403=CARTESIAN_POINT('',(0.,0.,0.));
#404=CARTESIAN_POINT('',(-9.29176085088544,0.,0.));
#405=CARTESIAN_POINT('',(0.,0.,0.399999999999998));
#406=CARTESIAN_POINT('',(0.,0.,0.));
#407=CARTESIAN_POINT('',(-12.25,0.,0.));
#408=CARTESIAN_POINT('',(9.29176085088544,0.,0.));
#409=CARTESIAN_POINT('',(0.,0.,-11.5));
#410=CARTESIAN_POINT('',(-12.25,0.,-11.5));
#411=CARTESIAN_POINT('',(0.,0.,41.));
#412=CARTESIAN_POINT('',(0.,0.,-11.5));
#413=CARTESIAN_POINT('',(-12.7,0.,-11.5));
#414=CARTESIAN_POINT('',(12.25,0.,-11.5));
#415=CARTESIAN_POINT('',(0.,0.,-12.02));
#416=CARTESIAN_POINT('',(12.7,0.,-12.02));
#417=CARTESIAN_POINT('',(0.,0.,41.));
#418=CARTESIAN_POINT('',(0.,0.,24.));
#419=CARTESIAN_POINT('',(-4.7,0.,24.));
#420=CARTESIAN_POINT('',(-1.33226762955019E-15,0.,24.));
#421=CARTESIAN_POINT('',(0.,0.,23.5));
#422=CARTESIAN_POINT('',(-5.2,0.,23.5));
#423=CARTESIAN_POINT('',(0.,0.,24.));
#424=CARTESIAN_POINT('',(0.,0.,20.));
#425=CARTESIAN_POINT('',(-5.2,0.,20.));
#426=CARTESIAN_POINT('',(0.,0.,41.));
#427=CARTESIAN_POINT('',(0.,0.,19.5));
#428=CARTESIAN_POINT('',(-5.7,0.,19.5));
#429=CARTESIAN_POINT('',(0.,0.,20.));
#430=CARTESIAN_POINT('',(5.7,0.,19.5));
#431=CARTESIAN_POINT('',(0.,0.,-12.02));
#432=CARTESIAN_POINT('',(0.,0.,-12.02));
#433=CARTESIAN_POINT('',(12.7,0.,-12.02));
#434=CARTESIAN_POINT('',(0.,0.,-12.02));
#435=CARTESIAN_POINT('',(0.,0.,-42.5));
#436=CARTESIAN_POINT('',(-9.652,0.,-42.5));
#437=CARTESIAN_POINT('',(9.652,0.,-42.5));
#438=CARTESIAN_POINT('',(0.,0.,-39.452));
#439=CARTESIAN_POINT('',(-12.7,0.,-39.452));
#440=CARTESIAN_POINT('',(0.,0.,-39.452));
#441=CARTESIAN_POINT('',(0.,0.,41.));
#442=MECHANICAL_DESIGN_GEOMETRIC_PRESENTATION_REPRESENTATION('',(#231,#232,
#233,#234,#235,#236,#237,#238,#239,#240),#443);
#443=(
GEOMETRIC_REPRESENTATION_CONTEXT(3)
GLOBAL_UNCERTAINTY_ASSIGNED_CONTEXT((#444))
GLOBAL_UNIT_ASSIGNED_CONTEXT((#450,#446,#445))
REPRESENTATION_CONTEXT('XSE550E251','TOP_LEVEL_ASSEMBLY_PART')
);
#444=UNCERTAINTY_MEASURE_WITH_UNIT(LENGTH_MEASURE(2.E-5),#450,
'DISTANCE_ACCURACY_VALUE','Maximum Tolerance applied to model');
#445=(
NAMED_UNIT(*)
SI_UNIT($,.STERADIAN.)
SOLID_ANGLE_UNIT()
);
#446=(
CONVERSION_BASED_UNIT('DEGREE',#448)
NAMED_UNIT(#447)
PLANE_ANGLE_UNIT()
);
#447=DIMENSIONAL_EXPONENTS(0.,0.,0.,0.,0.,0.,0.);
#448=PLANE_ANGLE_MEASURE_WITH_UNIT(PLANE_ANGLE_MEASURE(0.0174532925),#449);
#449=(
NAMED_UNIT(*)
PLANE_ANGLE_UNIT()
SI_UNIT($,.RADIAN.)
);
#450=(
LENGTH_UNIT()
NAMED_UNIT(*)
SI_UNIT(.MILLI.,.METRE.)
);
ENDSEC;
END-ISO-10303-21;
