ISO-10303-21;
HEADER;
/* Generated by software containing ST-Developer
 * from STEP Tools, Inc. (www.steptools.com) 
 */
/* OPTION: using custom schema-name function */

FILE_DESCRIPTION(
/* description */ (''),
/* implementation_level */ '2;1');

FILE_NAME(
/* name */ 'XSB540E16160D1BZ4A_Basic.stp',
/* time_stamp */ '2023-03-12T21:11:38+06:00',
/* author */ (''),
/* organization */ (''),
/* preprocessor_version */ 'ST-DEVELOPER v16.7',
/* originating_system */ 'SIEMENS PLM Software NX 12.0',
/* authorisation */ '');

FILE_SCHEMA (('AUTOMOTIVE_DESIGN { 1 0 10303 214 3 1 1 1 }'));
ENDSEC;

DATA;
#10=CONSTRUCTIVE_GEOMETRY_REPRESENTATION_RELATIONSHIP(
'supplemental geometry','',#34,#11);
#11=CONSTRUCTIVE_GEOMETRY_REPRESENTATION('supplemental geometry',(#253,
#254,#255),#420);
#12=GEOMETRICALLY_BOUNDED_WIREFRAME_SHAPE_REPRESENTATION(
'inpu4D1409C4eb7i-None',(#35),#420);
#13=PROPERTY_DEFINITION_REPRESENTATION(#17,#15);
#14=PROPERTY_DEFINITION_REPRESENTATION(#18,#16);
#15=REPRESENTATION('',(#19),#420);
#16=REPRESENTATION('',(#20),#420);
#17=PROPERTY_DEFINITION('pmi validation property','',#25);
#18=PROPERTY_DEFINITION('pmi validation property','',#25);
#19=VALUE_REPRESENTATION_ITEM('number of annotations',COUNT_MEASURE(0.));
#20=VALUE_REPRESENTATION_ITEM('number of views',COUNT_MEASURE(0.));
#21=SHAPE_REPRESENTATION_RELATIONSHIP('None',
'relationship between inpu4D1409C4eb7i-None and inpu4D1409C4eb7i-None',
#34,#23);
#22=SHAPE_REPRESENTATION_RELATIONSHIP('None',
'relationship between inpu4D1409C4eb7i-None and inpu4D1409C4eb7i-None',
#34,#12);
#23=ADVANCED_BREP_SHAPE_REPRESENTATION('inpu4D1409C4eb7i-None',(#51,#52),
#420);
#24=SHAPE_DEFINITION_REPRESENTATION(#25,#34);
#25=PRODUCT_DEFINITION_SHAPE('','',#26);
#26=PRODUCT_DEFINITION(' ','',#28,#27);
#27=PRODUCT_DEFINITION_CONTEXT('part definition',#33,'design');
#28=PRODUCT_DEFINITION_FORMATION_WITH_SPECIFIED_SOURCE(' ',' ',#30,
 .NOT_KNOWN.);
#29=PRODUCT_RELATED_PRODUCT_CATEGORY('part','',(#30));
#30=PRODUCT('inpu4D1409C4eb7i','inpu4D1409C4eb7i',' ',(#31));
#31=PRODUCT_CONTEXT(' ',#33,'mechanical');
#32=APPLICATION_PROTOCOL_DEFINITION('international standard',
'automotive_design',2010,#33);
#33=APPLICATION_CONTEXT(
'core data for automotive mechanical design processes');
#34=SHAPE_REPRESENTATION('inpu4D1409C4eb7i-None',(#252),#420);
#35=GEOMETRIC_CURVE_SET('None',(#355,#356,#357,#358,#217));
#36=TOROIDAL_SURFACE('',#267,6.12405278839403,0.400000000000001);
#37=TOROIDAL_SURFACE('',#283,4.,0.5);
#38=CONICAL_SURFACE('',#263,4.55949583781244,6.);
#39=CONICAL_SURFACE('',#265,5.63155903752234,2.20000000000004);
#40=CONICAL_SURFACE('',#279,3.,45.);
#41=SURFACE_STYLE_USAGE(.BOTH.,#43);
#42=SURFACE_STYLE_USAGE(.BOTH.,#44);
#43=SURFACE_SIDE_STYLE('',(#45));
#44=SURFACE_SIDE_STYLE('',(#46));
#45=SURFACE_STYLE_FILL_AREA(#47);
#46=SURFACE_STYLE_FILL_AREA(#48);
#47=FILL_AREA_STYLE('',(#49));
#48=FILL_AREA_STYLE('',(#50));
#49=FILL_AREA_STYLE_COLOUR('',#250);
#50=FILL_AREA_STYLE_COLOUR('',#251);
#51=MANIFOLD_SOLID_BREP('CUT',#53);
#52=MANIFOLD_SOLID_BREP('NOCUT',#54);
#53=CLOSED_SHELL('',(#89,#90,#91));
#54=CLOSED_SHELL('',(#92,#93,#94,#95,#96,#97,#98,#99,#100,#101,#102,#103,
#104));
#55=PLANE('',#260);
#56=PLANE('',#269);
#57=PLANE('',#273);
#58=PLANE('',#277);
#59=PLANE('',#284);
#60=PLANE('',#285);
#61=CYLINDRICAL_SURFACE('',#259,8.);
#62=CYLINDRICAL_SURFACE('',#271,7.75);
#63=CYLINDRICAL_SURFACE('',#275,8.);
#64=CYLINDRICAL_SURFACE('',#281,3.5);
#65=FACE_BOUND('',#111,.T.);
#66=FACE_BOUND('',#112,.T.);
#67=FACE_BOUND('',#114,.T.);
#68=FACE_BOUND('',#115,.T.);
#69=FACE_BOUND('',#116,.T.);
#70=FACE_BOUND('',#117,.T.);
#71=FACE_BOUND('',#118,.T.);
#72=FACE_BOUND('',#119,.T.);
#73=FACE_BOUND('',#120,.T.);
#74=FACE_BOUND('',#121,.T.);
#75=FACE_BOUND('',#122,.T.);
#76=FACE_BOUND('',#123,.T.);
#77=FACE_BOUND('',#124,.T.);
#78=FACE_BOUND('',#125,.T.);
#79=FACE_BOUND('',#126,.T.);
#80=FACE_BOUND('',#127,.T.);
#81=FACE_BOUND('',#129,.T.);
#82=FACE_BOUND('',#130,.T.);
#83=FACE_BOUND('',#131,.T.);
#84=FACE_BOUND('',#132,.T.);
#85=FACE_BOUND('',#133,.T.);
#86=FACE_BOUND('',#134,.T.);
#87=FACE_BOUND('',#135,.T.);
#88=FACE_BOUND('',#136,.T.);
#89=ADVANCED_FACE('',(#106),#105,.T.);
#90=ADVANCED_FACE('',(#65,#66),#61,.T.);
#91=ADVANCED_FACE('',(#107),#55,.T.);
#92=ADVANCED_FACE('',(#67,#68),#38,.T.);
#93=ADVANCED_FACE('',(#69,#70),#39,.T.);
#94=ADVANCED_FACE('',(#71,#72),#36,.F.);
#95=ADVANCED_FACE('',(#73,#74),#56,.F.);
#96=ADVANCED_FACE('',(#75,#76),#62,.T.);
#97=ADVANCED_FACE('',(#77,#78),#57,.F.);
#98=ADVANCED_FACE('',(#79,#80),#63,.T.);
#99=ADVANCED_FACE('',(#108),#58,.F.);
#100=ADVANCED_FACE('',(#81,#82),#40,.T.);
#101=ADVANCED_FACE('',(#83,#84),#64,.T.);
#102=ADVANCED_FACE('',(#85,#86),#37,.F.);
#103=ADVANCED_FACE('',(#87,#88),#59,.F.);
#104=ADVANCED_FACE('',(#109),#60,.F.);
#105=SPHERICAL_SURFACE('',#257,8.);
#106=FACE_OUTER_BOUND('',#110,.T.);
#107=FACE_OUTER_BOUND('',#113,.T.);
#108=FACE_OUTER_BOUND('',#128,.T.);
#109=FACE_OUTER_BOUND('',#137,.T.);
#110=EDGE_LOOP('',(#138));
#111=EDGE_LOOP('',(#139));
#112=EDGE_LOOP('',(#140));
#113=EDGE_LOOP('',(#141));
#114=EDGE_LOOP('',(#142));
#115=EDGE_LOOP('',(#143));
#116=EDGE_LOOP('',(#144));
#117=EDGE_LOOP('',(#145));
#118=EDGE_LOOP('',(#146));
#119=EDGE_LOOP('',(#147));
#120=EDGE_LOOP('',(#148));
#121=EDGE_LOOP('',(#149));
#122=EDGE_LOOP('',(#150));
#123=EDGE_LOOP('',(#151));
#124=EDGE_LOOP('',(#152));
#125=EDGE_LOOP('',(#153));
#126=EDGE_LOOP('',(#154));
#127=EDGE_LOOP('',(#155));
#128=EDGE_LOOP('',(#156));
#129=EDGE_LOOP('',(#157));
#130=EDGE_LOOP('',(#158));
#131=EDGE_LOOP('',(#159));
#132=EDGE_LOOP('',(#160));
#133=EDGE_LOOP('',(#161));
#134=EDGE_LOOP('',(#162));
#135=EDGE_LOOP('',(#163));
#136=EDGE_LOOP('',(#164));
#137=EDGE_LOOP('',(#165));
#138=ORIENTED_EDGE('',*,*,#180,.T.);
#139=ORIENTED_EDGE('',*,*,#181,.F.);
#140=ORIENTED_EDGE('',*,*,#180,.F.);
#141=ORIENTED_EDGE('',*,*,#181,.T.);
#142=ORIENTED_EDGE('',*,*,#182,.F.);
#143=ORIENTED_EDGE('',*,*,#183,.T.);
#144=ORIENTED_EDGE('',*,*,#184,.F.);
#145=ORIENTED_EDGE('',*,*,#182,.T.);
#146=ORIENTED_EDGE('',*,*,#185,.F.);
#147=ORIENTED_EDGE('',*,*,#184,.T.);
#148=ORIENTED_EDGE('',*,*,#186,.F.);
#149=ORIENTED_EDGE('',*,*,#185,.T.);
#150=ORIENTED_EDGE('',*,*,#187,.F.);
#151=ORIENTED_EDGE('',*,*,#186,.T.);
#152=ORIENTED_EDGE('',*,*,#188,.F.);
#153=ORIENTED_EDGE('',*,*,#187,.T.);
#154=ORIENTED_EDGE('',*,*,#189,.F.);
#155=ORIENTED_EDGE('',*,*,#188,.T.);
#156=ORIENTED_EDGE('',*,*,#190,.F.);
#157=ORIENTED_EDGE('',*,*,#191,.F.);
#158=ORIENTED_EDGE('',*,*,#190,.T.);
#159=ORIENTED_EDGE('',*,*,#192,.F.);
#160=ORIENTED_EDGE('',*,*,#191,.T.);
#161=ORIENTED_EDGE('',*,*,#193,.F.);
#162=ORIENTED_EDGE('',*,*,#192,.T.);
#163=ORIENTED_EDGE('',*,*,#183,.F.);
#164=ORIENTED_EDGE('',*,*,#193,.T.);
#165=ORIENTED_EDGE('',*,*,#189,.T.);
#166=VERTEX_POINT('',#376);
#167=VERTEX_POINT('',#379);
#168=VERTEX_POINT('',#383);
#169=VERTEX_POINT('',#385);
#170=VERTEX_POINT('',#388);
#171=VERTEX_POINT('',#391);
#172=VERTEX_POINT('',#394);
#173=VERTEX_POINT('',#397);
#174=VERTEX_POINT('',#400);
#175=VERTEX_POINT('',#403);
#176=VERTEX_POINT('',#406);
#177=VERTEX_POINT('',#409);
#178=VERTEX_POINT('',#412);
#179=VERTEX_POINT('',#415);
#180=EDGE_CURVE('',#166,#166,#194,.T.);
#181=EDGE_CURVE('',#167,#167,#195,.T.);
#182=EDGE_CURVE('',#168,#168,#196,.T.);
#183=EDGE_CURVE('',#169,#169,#197,.T.);
#184=EDGE_CURVE('',#170,#170,#198,.T.);
#185=EDGE_CURVE('',#171,#171,#199,.T.);
#186=EDGE_CURVE('',#172,#172,#200,.T.);
#187=EDGE_CURVE('',#173,#173,#201,.T.);
#188=EDGE_CURVE('',#174,#174,#202,.T.);
#189=EDGE_CURVE('',#175,#175,#203,.T.);
#190=EDGE_CURVE('',#176,#176,#204,.T.);
#191=EDGE_CURVE('',#177,#177,#205,.T.);
#192=EDGE_CURVE('',#178,#178,#206,.T.);
#193=EDGE_CURVE('',#179,#179,#207,.T.);
#194=CIRCLE('',#256,8.);
#195=CIRCLE('',#258,8.);
#196=CIRCLE('',#261,5.63155903752234);
#197=CIRCLE('',#262,4.55949583781244);
#198=CIRCLE('',#264,5.72434762182978);
#199=CIRCLE('',#266,6.12405278839403);
#200=CIRCLE('',#268,7.75);
#201=CIRCLE('',#270,7.75);
#202=CIRCLE('',#272,8.);
#203=CIRCLE('',#274,8.);
#204=CIRCLE('',#276,3.);
#205=CIRCLE('',#278,3.5);
#206=CIRCLE('',#280,3.5);
#207=CIRCLE('',#282,4.);
#208=CURVE_STYLE('',#213,POSITIVE_LENGTH_MEASURE(0.18),#212);
#209=CURVE_STYLE('',#214,POSITIVE_LENGTH_MEASURE(0.18),#249);
#210=CURVE_STYLE('',#215,POSITIVE_LENGTH_MEASURE(0.18),#249);
#211=CURVE_STYLE('',#216,POSITIVE_LENGTH_MEASURE(0.18),#249);
#212=DRAUGHTING_PRE_DEFINED_COLOUR('blue');
#213=DRAUGHTING_PRE_DEFINED_CURVE_FONT('continuous');
#214=DRAUGHTING_PRE_DEFINED_CURVE_FONT('continuous');
#215=DRAUGHTING_PRE_DEFINED_CURVE_FONT('continuous');
#216=DRAUGHTING_PRE_DEFINED_CURVE_FONT('continuous');
#217=TRIMMED_CURVE('CUTTING PART LINE',#218,(PARAMETER_VALUE(0.)),(
PARAMETER_VALUE(1.)),.T.,.PARAMETER.);
#218=(
BOUNDED_CURVE()
B_SPLINE_CURVE(3,(#359,#360,#361,#362,#363,#364,#365,#366,#367,#368,#369,
#370,#371),.UNSPECIFIED.,.T.,.F.)
B_SPLINE_CURVE_WITH_KNOTS((1,3,3,3,3,3,1),(-0.026519597277089,0.,0.416568859907354,
0.708284429955335,0.973480402722911,1.,1.41656885990735),.UNSPECIFIED.)
CURVE()
GEOMETRIC_REPRESENTATION_ITEM()
RATIONAL_B_SPLINE_CURVE((0.585786437626905,0.471404520791032,0.471404520791032,
0.585786437626905,0.585786437626905,0.585786437626905,0.585786437626905,
0.585786437626905,0.585786437626905,0.585786437626905,0.585786437626905,
0.585786437626905,0.585786437626905))
REPRESENTATION_ITEM('CUTTING PART LINE')
);
#219=PRESENTATION_LAYER_ASSIGNMENT('1','Layer 1',(#355,#356,#357,#358,#217,
#253,#254,#255,#51,#52));
#220=STYLED_ITEM('',(#230),#355);
#221=STYLED_ITEM('',(#231),#356);
#222=STYLED_ITEM('',(#232),#357);
#223=STYLED_ITEM('',(#233),#358);
#224=STYLED_ITEM('',(#234),#217);
#225=STYLED_ITEM('',(#235),#253);
#226=STYLED_ITEM('',(#236),#254);
#227=STYLED_ITEM('',(#237),#255);
#228=STYLED_ITEM('',(#238),#51);
#229=STYLED_ITEM('',(#239),#52);
#230=PRESENTATION_STYLE_ASSIGNMENT((#240));
#231=PRESENTATION_STYLE_ASSIGNMENT((#241));
#232=PRESENTATION_STYLE_ASSIGNMENT((#242));
#233=PRESENTATION_STYLE_ASSIGNMENT((#243));
#234=PRESENTATION_STYLE_ASSIGNMENT((#208));
#235=PRESENTATION_STYLE_ASSIGNMENT((#209));
#236=PRESENTATION_STYLE_ASSIGNMENT((#210));
#237=PRESENTATION_STYLE_ASSIGNMENT((#211));
#238=PRESENTATION_STYLE_ASSIGNMENT((#41));
#239=PRESENTATION_STYLE_ASSIGNMENT((#42));
#240=POINT_STYLE('',#244,POSITIVE_LENGTH_MEASURE(3.),#248);
#241=POINT_STYLE('',#245,POSITIVE_LENGTH_MEASURE(3.),#249);
#242=POINT_STYLE('',#246,POSITIVE_LENGTH_MEASURE(3.),#249);
#243=POINT_STYLE('',#247,POSITIVE_LENGTH_MEASURE(3.),#249);
#244=PRE_DEFINED_POINT_MARKER_SYMBOL('plus');
#245=PRE_DEFINED_POINT_MARKER_SYMBOL('plus');
#246=PRE_DEFINED_POINT_MARKER_SYMBOL('plus');
#247=PRE_DEFINED_POINT_MARKER_SYMBOL('plus');
#248=COLOUR_RGB('Medium Royal',0.2,0.4,0.8);
#249=COLOUR_RGB('Pale Maroon',0.811749446860456,0.603921568627451,0.611749446860456);
#250=COLOUR_RGB('Light Gray',0.8,0.8,0.8);
#251=COLOUR_RGB('Medium Gray',0.490196078431373,0.490196078431373,0.490196078431373);
#252=AXIS2_PLACEMENT_3D('',#354,#286,#287);
#253=AXIS2_PLACEMENT_3D('MCS',#372,#288,#289);
#254=AXIS2_PLACEMENT_3D('PCS',#373,#290,#291);
#255=AXIS2_PLACEMENT_3D('CIP',#374,#292,#293);
#256=AXIS2_PLACEMENT_3D('',#375,#294,#295);
#257=AXIS2_PLACEMENT_3D('',#377,#296,#297);
#258=AXIS2_PLACEMENT_3D('',#378,#298,#299);
#259=AXIS2_PLACEMENT_3D('',#380,#300,#301);
#260=AXIS2_PLACEMENT_3D('',#381,#302,#303);
#261=AXIS2_PLACEMENT_3D('',#382,#304,#305);
#262=AXIS2_PLACEMENT_3D('',#384,#306,#307);
#263=AXIS2_PLACEMENT_3D('',#386,#308,#309);
#264=AXIS2_PLACEMENT_3D('',#387,#310,#311);
#265=AXIS2_PLACEMENT_3D('',#389,#312,#313);
#266=AXIS2_PLACEMENT_3D('',#390,#314,#315);
#267=AXIS2_PLACEMENT_3D('',#392,#316,#317);
#268=AXIS2_PLACEMENT_3D('',#393,#318,#319);
#269=AXIS2_PLACEMENT_3D('',#395,#320,#321);
#270=AXIS2_PLACEMENT_3D('',#396,#322,#323);
#271=AXIS2_PLACEMENT_3D('',#398,#324,#325);
#272=AXIS2_PLACEMENT_3D('',#399,#326,#327);
#273=AXIS2_PLACEMENT_3D('',#401,#328,#329);
#274=AXIS2_PLACEMENT_3D('',#402,#330,#331);
#275=AXIS2_PLACEMENT_3D('',#404,#332,#333);
#276=AXIS2_PLACEMENT_3D('',#405,#334,#335);
#277=AXIS2_PLACEMENT_3D('',#407,#336,#337);
#278=AXIS2_PLACEMENT_3D('',#408,#338,#339);
#279=AXIS2_PLACEMENT_3D('',#410,#340,#341);
#280=AXIS2_PLACEMENT_3D('',#411,#342,#343);
#281=AXIS2_PLACEMENT_3D('',#413,#344,#345);
#282=AXIS2_PLACEMENT_3D('',#414,#346,#347);
#283=AXIS2_PLACEMENT_3D('',#416,#348,#349);
#284=AXIS2_PLACEMENT_3D('',#417,#350,#351);
#285=AXIS2_PLACEMENT_3D('',#418,#352,#353);
#286=DIRECTION('',(0.,0.,1.));
#287=DIRECTION('',(1.,0.,0.));
#288=DIRECTION('',(0.,0.,1.));
#289=DIRECTION('',(1.,0.,0.));
#290=DIRECTION('',(0.,0.,1.));
#291=DIRECTION('',(1.,0.,0.));
#292=DIRECTION('',(0.,0.,1.));
#293=DIRECTION('',(1.,0.,0.));
#294=DIRECTION('',(0.,0.,-1.));
#295=DIRECTION('',(-1.,0.,0.));
#296=DIRECTION('',(3.69778549322349E-32,0.,-1.));
#297=DIRECTION('',(-1.,0.,0.));
#298=DIRECTION('',(0.,0.,1.));
#299=DIRECTION('',(1.,0.,0.));
#300=DIRECTION('',(0.,0.,-1.));
#301=DIRECTION('',(1.,0.,0.));
#302=DIRECTION('',(0.,0.,1.));
#303=DIRECTION('',(-1.,0.,0.));
#304=DIRECTION('',(0.,0.,-1.));
#305=DIRECTION('',(-0.998100654947181,-0.0616042416884505,0.));
#306=DIRECTION('',(0.,0.,-1.));
#307=DIRECTION('',(-0.998100654947181,-0.0616042416884505,0.));
#308=DIRECTION('',(0.,0.,-1.));
#309=DIRECTION('',(0.998100654947181,0.0616042416884505,9.49114237781912E-17));
#310=DIRECTION('',(0.,0.,-1.));
#311=DIRECTION('',(-0.998100654947181,-0.0616042416884505,0.));
#312=DIRECTION('',(0.,0.,-1.));
#313=DIRECTION('',(0.998100654947181,0.0616042416884505,7.87657065091524E-16));
#314=DIRECTION('',(0.,0.,-1.));
#315=DIRECTION('',(-0.998100654947181,-0.0616042416884505,0.));
#316=DIRECTION('',(0.,0.,-1.));
#317=DIRECTION('',(0.998100654947181,0.0616042416884505,0.));
#318=DIRECTION('',(0.,0.,-1.));
#319=DIRECTION('',(-0.998100654947181,-0.0616042416884505,0.));
#320=DIRECTION('',(0.,0.,-1.));
#321=DIRECTION('',(0.998100654947181,0.0616042416884505,0.));
#322=DIRECTION('',(0.,0.,-1.));
#323=DIRECTION('',(-0.998100654947181,-0.0616042416884505,0.));
#324=DIRECTION('',(0.,0.,-1.));
#325=DIRECTION('',(0.998100654947181,0.0616042416884505,0.));
#326=DIRECTION('',(0.,0.,-1.));
#327=DIRECTION('',(-0.998100654947181,-0.0616042416884505,0.));
#328=DIRECTION('',(0.,0.,-1.));
#329=DIRECTION('',(0.998100654947181,0.0616042416884505,0.));
#330=DIRECTION('',(0.,0.,-1.));
#331=DIRECTION('',(0.998100654947181,0.0616042416884505,0.));
#332=DIRECTION('',(0.,0.,-1.));
#333=DIRECTION('',(0.99810065494718,0.0616042416884505,0.));
#334=DIRECTION('',(0.,0.,-1.));
#335=DIRECTION('',(-0.998100654947181,-0.0616042416884505,0.));
#336=DIRECTION('',(0.,0.,-1.));
#337=DIRECTION('',(0.998100654947181,0.0616042416884505,0.));
#338=DIRECTION('',(0.,0.,-1.));
#339=DIRECTION('',(-0.998100654947181,-0.0616042416884505,0.));
#340=DIRECTION('',(0.,0.,-1.));
#341=DIRECTION('',(0.998100654947181,0.0616042416884505,1.38362789709018E-17));
#342=DIRECTION('',(0.,0.,-1.));
#343=DIRECTION('',(-0.998100654947181,-0.0616042416884505,0.));
#344=DIRECTION('',(0.,0.,-1.));
#345=DIRECTION('',(0.998100654947181,0.0616042416884505,0.));
#346=DIRECTION('',(0.,0.,-1.));
#347=DIRECTION('',(-0.998100654947181,-0.0616042416884505,0.));
#348=DIRECTION('',(0.,0.,-1.));
#349=DIRECTION('',(0.99810065494718,0.0616042416884505,0.));
#350=DIRECTION('',(0.,0.,-1.));
#351=DIRECTION('',(0.998100654947181,0.0616042416884505,0.));
#352=DIRECTION('',(0.,0.,1.));
#353=DIRECTION('',(-0.998100654947181,-0.0616042416884505,0.));
#354=CARTESIAN_POINT('',(0.,0.,0.));
#355=CARTESIAN_POINT('CRP',(-8.,0.,-18.6));
#356=CARTESIAN_POINT('',(0.,0.,0.));
#357=CARTESIAN_POINT('',(0.,0.,0.));
#358=CARTESIAN_POINT('',(0.,0.,-18.6));
#359=CARTESIAN_POINT('',(-8.,0.,-10.6));
#360=CARTESIAN_POINT('',(-8.,0.,-15.2862915010152));
#361=CARTESIAN_POINT('',(-4.68629150101524,0.,-18.6));
#362=CARTESIAN_POINT('',(-4.89858719658941E-16,0.,-18.6));
#363=CARTESIAN_POINT('',(0.,0.,-15.6666666666667));
#364=CARTESIAN_POINT('',(0.,0.,-12.7333333333333));
#365=CARTESIAN_POINT('',(0.,0.,-9.8));
#366=CARTESIAN_POINT('',(-2.66666666666667,0.,-9.8));
#367=CARTESIAN_POINT('',(-5.33333333333333,0.,-9.8));
#368=CARTESIAN_POINT('',(-8.,0.,-9.8));
#369=CARTESIAN_POINT('',(-8.,0.,-10.0666666666667));
#370=CARTESIAN_POINT('',(-8.,0.,-10.3333333333333));
#371=CARTESIAN_POINT('',(-8.,0.,-10.6));
#372=CARTESIAN_POINT('',(0.,0.,0.));
#373=CARTESIAN_POINT('',(0.,0.,0.));
#374=CARTESIAN_POINT('',(0.,0.,-18.6));
#375=CARTESIAN_POINT('',(0.,0.,-10.6));
#376=CARTESIAN_POINT('',(-8.,0.,-10.6));
#377=CARTESIAN_POINT('',(0.,0.,-10.6));
#378=CARTESIAN_POINT('',(0.,0.,-9.8));
#379=CARTESIAN_POINT('',(8.,0.,-9.8));
#380=CARTESIAN_POINT('',(0.,0.,28.));
#381=CARTESIAN_POINT('',(0.,0.,-9.8));
#382=CARTESIAN_POINT('',(0.,0.,2.79999999999999));
#383=CARTESIAN_POINT('',(-5.62086276372477,-0.346927924030304,2.79999999999999));
#384=CARTESIAN_POINT('',(0.,0.,13.));
#385=CARTESIAN_POINT('',(-4.55083578194954,-0.280884283570082,13.));
#386=CARTESIAN_POINT('',(0.,0.,13.));
#387=CARTESIAN_POINT('',(0.,0.,0.384644876364991));
#388=CARTESIAN_POINT('',(-5.71347511049364,-0.352644094403909,0.384644876364991));
#389=CARTESIAN_POINT('',(0.,0.,2.79999999999999));
#390=CARTESIAN_POINT('',(0.,0.,-6.93889390390723E-15));
#391=CARTESIAN_POINT('',(-6.11242109902719,-0.377267628089055,-6.93889390390723E-15));
#392=CARTESIAN_POINT('',(0.,0.,0.399999999999994));
#393=CARTESIAN_POINT('',(0.,0.,-3.46944695195361E-15));
#394=CARTESIAN_POINT('',(-7.73528007584065,-0.477432873085491,-3.46944695195361E-15));
#395=CARTESIAN_POINT('',(6.11242109902719,0.377267628089055,-6.93889390390723E-15));
#396=CARTESIAN_POINT('',(0.,0.,-7.8));
#397=CARTESIAN_POINT('',(-7.73528007584065,-0.477432873085492,-7.8));
#398=CARTESIAN_POINT('',(0.,0.,28.));
#399=CARTESIAN_POINT('',(0.,0.,-7.8));
#400=CARTESIAN_POINT('',(-7.98480523957745,-0.492833933507604,-7.8));
#401=CARTESIAN_POINT('',(7.73528007584065,0.477432873085492,-7.8));
#402=CARTESIAN_POINT('',(0.,0.,-9.8));
#403=CARTESIAN_POINT('',(7.98480523957745,0.492833933507604,-9.8));
#404=CARTESIAN_POINT('',(0.,0.,28.));
#405=CARTESIAN_POINT('',(0.,0.,17.));
#406=CARTESIAN_POINT('',(-2.99430196484154,-0.184812725065351,17.));
#407=CARTESIAN_POINT('',(-1.99460579042846E-15,-1.23110005566763E-16,17.));
#408=CARTESIAN_POINT('',(0.,0.,16.5));
#409=CARTESIAN_POINT('',(-3.49335229231513,-0.215614845909577,16.5));
#410=CARTESIAN_POINT('',(0.,0.,17.));
#411=CARTESIAN_POINT('',(0.,0.,13.5));
#412=CARTESIAN_POINT('',(-3.49335229231513,-0.215614845909577,13.5));
#413=CARTESIAN_POINT('',(0.,0.,28.));
#414=CARTESIAN_POINT('',(0.,0.,13.));
#415=CARTESIAN_POINT('',(-3.99240261978872,-0.246416966753802,13.));
#416=CARTESIAN_POINT('',(0.,0.,13.5));
#417=CARTESIAN_POINT('',(3.99240261978872,0.246416966753802,13.));
#418=CARTESIAN_POINT('',(0.,0.,-9.8));
#419=MECHANICAL_DESIGN_GEOMETRIC_PRESENTATION_REPRESENTATION('',(#220,#221,
#222,#223,#224,#225,#226,#227,#228,#229),#420);
#420=(
GEOMETRIC_REPRESENTATION_CONTEXT(3)
GLOBAL_UNCERTAINTY_ASSIGNED_CONTEXT((#421))
GLOBAL_UNIT_ASSIGNED_CONTEXT((#427,#423,#422))
REPRESENTATION_CONTEXT('XSB540E16160D1BZ4A_Basic',
'TOP_LEVEL_ASSEMBLY_PART')
);
#421=UNCERTAINTY_MEASURE_WITH_UNIT(LENGTH_MEASURE(2.E-5),#427,
'DISTANCE_ACCURACY_VALUE','Maximum Tolerance applied to model');
#422=(
NAMED_UNIT(*)
SI_UNIT($,.STERADIAN.)
SOLID_ANGLE_UNIT()
);
#423=(
CONVERSION_BASED_UNIT('DEGREE',#425)
NAMED_UNIT(#424)
PLANE_ANGLE_UNIT()
);
#424=DIMENSIONAL_EXPONENTS(0.,0.,0.,0.,0.,0.,0.);
#425=PLANE_ANGLE_MEASURE_WITH_UNIT(PLANE_ANGLE_MEASURE(0.0174532925),#426);
#426=(
NAMED_UNIT(*)
PLANE_ANGLE_UNIT()
SI_UNIT($,.RADIAN.)
);
#427=(
LENGTH_UNIT()
NAMED_UNIT(*)
SI_UNIT(.MILLI.,.METRE.)
);
ENDSEC;
END-ISO-10303-21;
