ISO-10303-21;
HEADER;
/* Generated by software containing ST-Developer
 * from STEP Tools, Inc. (www.steptools.com) 
 */
/* OPTION: using custom schema-name function */

FILE_DESCRIPTION(
/* description */ (''),
/* implementation_level */ '2;1');

FILE_NAME(
/* name */ 'XSB540E12120D1BZ4A_Basic.stp',
/* time_stamp */ '2023-03-12T21:09:37+06:00',
/* author */ (''),
/* organization */ (''),
/* preprocessor_version */ 'ST-DEVELOPER v16.7',
/* originating_system */ 'SIEMENS PLM Software NX 12.0',
/* authorisation */ '');

FILE_SCHEMA (('AUTOMOTIVE_DESIGN { 1 0 10303 214 3 1 1 1 }'));
ENDSEC;

DATA;
#10=CONSTRUCTIVE_GEOMETRY_REPRESENTATION_RELATIONSHIP(
'supplemental geometry','',#34,#11);
#11=CONSTRUCTIVE_GEOMETRY_REPRESENTATION('supplemental geometry',(#253,
#254,#255),#420);
#12=GEOMETRICALLY_BOUNDED_WIREFRAME_SHAPE_REPRESENTATION(
'inpu4D1409C4eb74-None',(#35),#420);
#13=PROPERTY_DEFINITION_REPRESENTATION(#17,#15);
#14=PROPERTY_DEFINITION_REPRESENTATION(#18,#16);
#15=REPRESENTATION('',(#19),#420);
#16=REPRESENTATION('',(#20),#420);
#17=PROPERTY_DEFINITION('pmi validation property','',#25);
#18=PROPERTY_DEFINITION('pmi validation property','',#25);
#19=VALUE_REPRESENTATION_ITEM('number of annotations',COUNT_MEASURE(0.));
#20=VALUE_REPRESENTATION_ITEM('number of views',COUNT_MEASURE(0.));
#21=SHAPE_REPRESENTATION_RELATIONSHIP('None',
'relationship between inpu4D1409C4eb74-None and inpu4D1409C4eb74-None',
#34,#23);
#22=SHAPE_REPRESENTATION_RELATIONSHIP('None',
'relationship between inpu4D1409C4eb74-None and inpu4D1409C4eb74-None',
#34,#12);
#23=ADVANCED_BREP_SHAPE_REPRESENTATION('inpu4D1409C4eb74-None',(#47,#48),
#420);
#24=SHAPE_DEFINITION_REPRESENTATION(#25,#34);
#25=PRODUCT_DEFINITION_SHAPE('','',#26);
#26=PRODUCT_DEFINITION(' ','',#28,#27);
#27=PRODUCT_DEFINITION_CONTEXT('part definition',#33,'design');
#28=PRODUCT_DEFINITION_FORMATION_WITH_SPECIFIED_SOURCE(' ',' ',#30,
 .NOT_KNOWN.);
#29=PRODUCT_RELATED_PRODUCT_CATEGORY('part','',(#30));
#30=PRODUCT('inpu4D1409C4eb74','inpu4D1409C4eb74',' ',(#31));
#31=PRODUCT_CONTEXT(' ',#33,'mechanical');
#32=APPLICATION_PROTOCOL_DEFINITION('international standard',
'automotive_design',2010,#33);
#33=APPLICATION_CONTEXT(
'core data for automotive mechanical design processes');
#34=SHAPE_REPRESENTATION('inpu4D1409C4eb74-None',(#252),#420);
#35=GEOMETRIC_CURVE_SET('None',(#355,#356,#357,#358,#217));
#36=SPHERICAL_SURFACE('',#282,6.);
#37=SURFACE_STYLE_USAGE(.BOTH.,#39);
#38=SURFACE_STYLE_USAGE(.BOTH.,#40);
#39=SURFACE_SIDE_STYLE('',(#41));
#40=SURFACE_SIDE_STYLE('',(#42));
#41=SURFACE_STYLE_FILL_AREA(#43);
#42=SURFACE_STYLE_FILL_AREA(#44);
#43=FILL_AREA_STYLE('',(#45));
#44=FILL_AREA_STYLE('',(#46));
#45=FILL_AREA_STYLE_COLOUR('',#250);
#46=FILL_AREA_STYLE_COLOUR('',#251);
#47=MANIFOLD_SOLID_BREP('NOCUT',#49);
#48=MANIFOLD_SOLID_BREP('CUT',#50);
#49=CLOSED_SHELL('',(#67,#68,#69,#70,#71,#72,#73,#74,#75,#76,#77,#78,#79));
#50=CLOSED_SHELL('',(#80,#81,#82));
#51=FACE_OUTER_BOUND('',#124,.T.);
#52=FACE_OUTER_BOUND('',#133,.T.);
#53=FACE_OUTER_BOUND('',#134,.T.);
#54=FACE_OUTER_BOUND('',#137,.T.);
#55=CYLINDRICAL_SURFACE('',#266,5.85);
#56=CYLINDRICAL_SURFACE('',#270,6.);
#57=CYLINDRICAL_SURFACE('',#276,2.75);
#58=CYLINDRICAL_SURFACE('',#284,6.);
#59=PLANE('',#264);
#60=PLANE('',#268);
#61=PLANE('',#272);
#62=PLANE('',#279);
#63=PLANE('',#280);
#64=PLANE('',#285);
#65=TOROIDAL_SURFACE('',#262,4.90361257567267,0.3);
#66=TOROIDAL_SURFACE('',#278,3.25,0.5);
#67=ADVANCED_FACE('',(#86,#87),#83,.T.);
#68=ADVANCED_FACE('',(#88,#89),#84,.T.);
#69=ADVANCED_FACE('',(#90,#91),#65,.F.);
#70=ADVANCED_FACE('',(#92,#93),#59,.F.);
#71=ADVANCED_FACE('',(#94,#95),#55,.T.);
#72=ADVANCED_FACE('',(#96,#97),#60,.F.);
#73=ADVANCED_FACE('',(#98,#99),#56,.T.);
#74=ADVANCED_FACE('',(#51),#61,.F.);
#75=ADVANCED_FACE('',(#100,#101),#85,.T.);
#76=ADVANCED_FACE('',(#102,#103),#57,.T.);
#77=ADVANCED_FACE('',(#104,#105),#66,.F.);
#78=ADVANCED_FACE('',(#106,#107),#62,.F.);
#79=ADVANCED_FACE('',(#52),#63,.F.);
#80=ADVANCED_FACE('',(#53),#36,.T.);
#81=ADVANCED_FACE('',(#108,#109),#58,.T.);
#82=ADVANCED_FACE('',(#54),#64,.T.);
#83=CONICAL_SURFACE('',#258,3.75161489508634,6.);
#84=CONICAL_SURFACE('',#260,4.51887581252578,2.20000000000005);
#85=CONICAL_SURFACE('',#274,2.25,45.);
#86=FACE_BOUND('',#110,.T.);
#87=FACE_BOUND('',#111,.T.);
#88=FACE_BOUND('',#112,.T.);
#89=FACE_BOUND('',#113,.T.);
#90=FACE_BOUND('',#114,.T.);
#91=FACE_BOUND('',#115,.T.);
#92=FACE_BOUND('',#116,.T.);
#93=FACE_BOUND('',#117,.T.);
#94=FACE_BOUND('',#118,.T.);
#95=FACE_BOUND('',#119,.T.);
#96=FACE_BOUND('',#120,.T.);
#97=FACE_BOUND('',#121,.T.);
#98=FACE_BOUND('',#122,.T.);
#99=FACE_BOUND('',#123,.T.);
#100=FACE_BOUND('',#125,.T.);
#101=FACE_BOUND('',#126,.T.);
#102=FACE_BOUND('',#127,.T.);
#103=FACE_BOUND('',#128,.T.);
#104=FACE_BOUND('',#129,.T.);
#105=FACE_BOUND('',#130,.T.);
#106=FACE_BOUND('',#131,.T.);
#107=FACE_BOUND('',#132,.T.);
#108=FACE_BOUND('',#135,.T.);
#109=FACE_BOUND('',#136,.T.);
#110=EDGE_LOOP('',(#138));
#111=EDGE_LOOP('',(#139));
#112=EDGE_LOOP('',(#140));
#113=EDGE_LOOP('',(#141));
#114=EDGE_LOOP('',(#142));
#115=EDGE_LOOP('',(#143));
#116=EDGE_LOOP('',(#144));
#117=EDGE_LOOP('',(#145));
#118=EDGE_LOOP('',(#146));
#119=EDGE_LOOP('',(#147));
#120=EDGE_LOOP('',(#148));
#121=EDGE_LOOP('',(#149));
#122=EDGE_LOOP('',(#150));
#123=EDGE_LOOP('',(#151));
#124=EDGE_LOOP('',(#152));
#125=EDGE_LOOP('',(#153));
#126=EDGE_LOOP('',(#154));
#127=EDGE_LOOP('',(#155));
#128=EDGE_LOOP('',(#156));
#129=EDGE_LOOP('',(#157));
#130=EDGE_LOOP('',(#158));
#131=EDGE_LOOP('',(#159));
#132=EDGE_LOOP('',(#160));
#133=EDGE_LOOP('',(#161));
#134=EDGE_LOOP('',(#162));
#135=EDGE_LOOP('',(#163));
#136=EDGE_LOOP('',(#164));
#137=EDGE_LOOP('',(#165));
#138=ORIENTED_EDGE('',*,*,#180,.F.);
#139=ORIENTED_EDGE('',*,*,#181,.T.);
#140=ORIENTED_EDGE('',*,*,#182,.F.);
#141=ORIENTED_EDGE('',*,*,#180,.T.);
#142=ORIENTED_EDGE('',*,*,#183,.F.);
#143=ORIENTED_EDGE('',*,*,#182,.T.);
#144=ORIENTED_EDGE('',*,*,#184,.F.);
#145=ORIENTED_EDGE('',*,*,#183,.T.);
#146=ORIENTED_EDGE('',*,*,#185,.F.);
#147=ORIENTED_EDGE('',*,*,#184,.T.);
#148=ORIENTED_EDGE('',*,*,#186,.F.);
#149=ORIENTED_EDGE('',*,*,#185,.T.);
#150=ORIENTED_EDGE('',*,*,#187,.F.);
#151=ORIENTED_EDGE('',*,*,#186,.T.);
#152=ORIENTED_EDGE('',*,*,#188,.F.);
#153=ORIENTED_EDGE('',*,*,#189,.F.);
#154=ORIENTED_EDGE('',*,*,#188,.T.);
#155=ORIENTED_EDGE('',*,*,#190,.F.);
#156=ORIENTED_EDGE('',*,*,#189,.T.);
#157=ORIENTED_EDGE('',*,*,#191,.F.);
#158=ORIENTED_EDGE('',*,*,#190,.T.);
#159=ORIENTED_EDGE('',*,*,#181,.F.);
#160=ORIENTED_EDGE('',*,*,#191,.T.);
#161=ORIENTED_EDGE('',*,*,#187,.T.);
#162=ORIENTED_EDGE('',*,*,#192,.T.);
#163=ORIENTED_EDGE('',*,*,#192,.F.);
#164=ORIENTED_EDGE('',*,*,#193,.F.);
#165=ORIENTED_EDGE('',*,*,#193,.T.);
#166=VERTEX_POINT('',#376);
#167=VERTEX_POINT('',#378);
#168=VERTEX_POINT('',#381);
#169=VERTEX_POINT('',#384);
#170=VERTEX_POINT('',#387);
#171=VERTEX_POINT('',#390);
#172=VERTEX_POINT('',#393);
#173=VERTEX_POINT('',#396);
#174=VERTEX_POINT('',#399);
#175=VERTEX_POINT('',#402);
#176=VERTEX_POINT('',#405);
#177=VERTEX_POINT('',#408);
#178=VERTEX_POINT('',#413);
#179=VERTEX_POINT('',#416);
#180=EDGE_CURVE('',#166,#166,#194,.T.);
#181=EDGE_CURVE('',#167,#167,#195,.T.);
#182=EDGE_CURVE('',#168,#168,#196,.T.);
#183=EDGE_CURVE('',#169,#169,#197,.T.);
#184=EDGE_CURVE('',#170,#170,#198,.T.);
#185=EDGE_CURVE('',#171,#171,#199,.T.);
#186=EDGE_CURVE('',#172,#172,#200,.T.);
#187=EDGE_CURVE('',#173,#173,#201,.T.);
#188=EDGE_CURVE('',#174,#174,#202,.T.);
#189=EDGE_CURVE('',#175,#175,#203,.T.);
#190=EDGE_CURVE('',#176,#176,#204,.T.);
#191=EDGE_CURVE('',#177,#177,#205,.T.);
#192=EDGE_CURVE('',#178,#178,#206,.T.);
#193=EDGE_CURVE('',#179,#179,#207,.T.);
#194=CIRCLE('',#256,4.51887581252578);
#195=CIRCLE('',#257,3.75161489508634);
#196=CIRCLE('',#259,4.60383370074948);
#197=CIRCLE('',#261,4.90361257567267);
#198=CIRCLE('',#263,5.85);
#199=CIRCLE('',#265,5.85);
#200=CIRCLE('',#267,6.);
#201=CIRCLE('',#269,6.);
#202=CIRCLE('',#271,2.25);
#203=CIRCLE('',#273,2.75);
#204=CIRCLE('',#275,2.75);
#205=CIRCLE('',#277,3.25);
#206=CIRCLE('',#281,6.);
#207=CIRCLE('',#283,6.);
#208=CURVE_STYLE('',#213,POSITIVE_LENGTH_MEASURE(0.18),#212);
#209=CURVE_STYLE('',#214,POSITIVE_LENGTH_MEASURE(0.18),#249);
#210=CURVE_STYLE('',#215,POSITIVE_LENGTH_MEASURE(0.18),#249);
#211=CURVE_STYLE('',#216,POSITIVE_LENGTH_MEASURE(0.18),#249);
#212=DRAUGHTING_PRE_DEFINED_COLOUR('blue');
#213=DRAUGHTING_PRE_DEFINED_CURVE_FONT('continuous');
#214=DRAUGHTING_PRE_DEFINED_CURVE_FONT('continuous');
#215=DRAUGHTING_PRE_DEFINED_CURVE_FONT('continuous');
#216=DRAUGHTING_PRE_DEFINED_CURVE_FONT('continuous');
#217=TRIMMED_CURVE('CUTTING PART LINE',#218,(PARAMETER_VALUE(0.)),(
PARAMETER_VALUE(1.)),.T.,.PARAMETER.);
#218=(
BOUNDED_CURVE()
B_SPLINE_CURVE(3,(#359,#360,#361,#362,#363,#364,#365,#366,#367,#368,#369,
#370,#371),.UNSPECIFIED.,.T.,.F.)
B_SPLINE_CURVE_WITH_KNOTS((1,3,3,3,3,3,1),(-0.026519597272962,0.,0.416568859910852,
0.708284429957636,0.973480402727038,1.,1.41656885991085),.UNSPECIFIED.)
CURVE()
GEOMETRIC_REPRESENTATION_ITEM()
RATIONAL_B_SPLINE_CURVE((0.585786437626905,0.471404520791032,0.471404520791032,
0.585786437626905,0.585786437626905,0.585786437626905,0.585786437626905,
0.585786437626905,0.585786437626905,0.585786437626905,0.585786437626905,
0.585786437626905,0.585786437626905))
REPRESENTATION_ITEM('CUTTING PART LINE')
);
#219=PRESENTATION_LAYER_ASSIGNMENT('1','Layer 1',(#355,#356,#357,#358,#217,
#253,#254,#255,#47,#48));
#220=STYLED_ITEM('',(#230),#355);
#221=STYLED_ITEM('',(#231),#356);
#222=STYLED_ITEM('',(#232),#357);
#223=STYLED_ITEM('',(#233),#358);
#224=STYLED_ITEM('',(#234),#217);
#225=STYLED_ITEM('',(#235),#253);
#226=STYLED_ITEM('',(#236),#254);
#227=STYLED_ITEM('',(#237),#255);
#228=STYLED_ITEM('',(#238),#47);
#229=STYLED_ITEM('',(#239),#48);
#230=PRESENTATION_STYLE_ASSIGNMENT((#240));
#231=PRESENTATION_STYLE_ASSIGNMENT((#241));
#232=PRESENTATION_STYLE_ASSIGNMENT((#242));
#233=PRESENTATION_STYLE_ASSIGNMENT((#243));
#234=PRESENTATION_STYLE_ASSIGNMENT((#208));
#235=PRESENTATION_STYLE_ASSIGNMENT((#209));
#236=PRESENTATION_STYLE_ASSIGNMENT((#210));
#237=PRESENTATION_STYLE_ASSIGNMENT((#211));
#238=PRESENTATION_STYLE_ASSIGNMENT((#37));
#239=PRESENTATION_STYLE_ASSIGNMENT((#38));
#240=POINT_STYLE('',#244,POSITIVE_LENGTH_MEASURE(3.),#248);
#241=POINT_STYLE('',#245,POSITIVE_LENGTH_MEASURE(3.),#249);
#242=POINT_STYLE('',#246,POSITIVE_LENGTH_MEASURE(3.),#249);
#243=POINT_STYLE('',#247,POSITIVE_LENGTH_MEASURE(3.),#249);
#244=PRE_DEFINED_POINT_MARKER_SYMBOL('plus');
#245=PRE_DEFINED_POINT_MARKER_SYMBOL('plus');
#246=PRE_DEFINED_POINT_MARKER_SYMBOL('plus');
#247=PRE_DEFINED_POINT_MARKER_SYMBOL('plus');
#248=COLOUR_RGB('Medium Royal',0.2,0.4,0.8);
#249=COLOUR_RGB('Pale Maroon',0.811749446860456,0.603921568627451,0.611749446860456);
#250=COLOUR_RGB('Medium Gray',0.490196078431373,0.490196078431373,0.490196078431373);
#251=COLOUR_RGB('Light Gray',0.8,0.8,0.8);
#252=AXIS2_PLACEMENT_3D('',#354,#286,#287);
#253=AXIS2_PLACEMENT_3D('MCS',#372,#288,#289);
#254=AXIS2_PLACEMENT_3D('PCS',#373,#290,#291);
#255=AXIS2_PLACEMENT_3D('CIP',#374,#292,#293);
#256=AXIS2_PLACEMENT_3D('',#375,#294,#295);
#257=AXIS2_PLACEMENT_3D('',#377,#296,#297);
#258=AXIS2_PLACEMENT_3D('',#379,#298,#299);
#259=AXIS2_PLACEMENT_3D('',#380,#300,#301);
#260=AXIS2_PLACEMENT_3D('',#382,#302,#303);
#261=AXIS2_PLACEMENT_3D('',#383,#304,#305);
#262=AXIS2_PLACEMENT_3D('',#385,#306,#307);
#263=AXIS2_PLACEMENT_3D('',#386,#308,#309);
#264=AXIS2_PLACEMENT_3D('',#388,#310,#311);
#265=AXIS2_PLACEMENT_3D('',#389,#312,#313);
#266=AXIS2_PLACEMENT_3D('',#391,#314,#315);
#267=AXIS2_PLACEMENT_3D('',#392,#316,#317);
#268=AXIS2_PLACEMENT_3D('',#394,#318,#319);
#269=AXIS2_PLACEMENT_3D('',#395,#320,#321);
#270=AXIS2_PLACEMENT_3D('',#397,#322,#323);
#271=AXIS2_PLACEMENT_3D('',#398,#324,#325);
#272=AXIS2_PLACEMENT_3D('',#400,#326,#327);
#273=AXIS2_PLACEMENT_3D('',#401,#328,#329);
#274=AXIS2_PLACEMENT_3D('',#403,#330,#331);
#275=AXIS2_PLACEMENT_3D('',#404,#332,#333);
#276=AXIS2_PLACEMENT_3D('',#406,#334,#335);
#277=AXIS2_PLACEMENT_3D('',#407,#336,#337);
#278=AXIS2_PLACEMENT_3D('',#409,#338,#339);
#279=AXIS2_PLACEMENT_3D('',#410,#340,#341);
#280=AXIS2_PLACEMENT_3D('',#411,#342,#343);
#281=AXIS2_PLACEMENT_3D('',#412,#344,#345);
#282=AXIS2_PLACEMENT_3D('',#414,#346,#347);
#283=AXIS2_PLACEMENT_3D('',#415,#348,#349);
#284=AXIS2_PLACEMENT_3D('',#417,#350,#351);
#285=AXIS2_PLACEMENT_3D('',#418,#352,#353);
#286=DIRECTION('',(0.,0.,1.));
#287=DIRECTION('',(1.,0.,0.));
#288=DIRECTION('',(0.,0.,1.));
#289=DIRECTION('',(1.,0.,0.));
#290=DIRECTION('',(0.,0.,1.));
#291=DIRECTION('',(1.,0.,0.));
#292=DIRECTION('',(0.,0.,1.));
#293=DIRECTION('',(1.,0.,0.));
#294=DIRECTION('',(0.,0.,-1.));
#295=DIRECTION('',(-0.998872048100217,-0.0474829603550388,0.));
#296=DIRECTION('',(0.,0.,-1.));
#297=DIRECTION('',(-0.998872048100217,-0.0474829603550388,0.));
#298=DIRECTION('',(0.,0.,-1.));
#299=DIRECTION('',(0.998872048100217,0.0474829603550388,2.7091147648981E-16));
#300=DIRECTION('',(0.,0.,-1.));
#301=DIRECTION('',(-0.998872048100217,-0.0474829603550388,0.));
#302=DIRECTION('',(0.,0.,-1.));
#303=DIRECTION('',(0.998872048100217,0.0474829603550388,-1.24240703151629E-15));
#304=DIRECTION('',(0.,0.,-1.));
#305=DIRECTION('',(-0.998872048100217,-0.0474829603550388,0.));
#306=DIRECTION('',(0.,0.,-1.));
#307=DIRECTION('',(0.998872048100217,0.0474829603550388,0.));
#308=DIRECTION('',(0.,0.,-1.));
#309=DIRECTION('',(-0.998872048100217,-0.0474829603550388,0.));
#310=DIRECTION('',(0.,0.,-1.));
#311=DIRECTION('',(0.998872048100217,0.0474829603550388,0.));
#312=DIRECTION('',(0.,0.,-1.));
#313=DIRECTION('',(-0.998872048100217,-0.0474829603550388,0.));
#314=DIRECTION('',(0.,0.,-1.));
#315=DIRECTION('',(0.998872048100217,0.0474829603550388,0.));
#316=DIRECTION('',(0.,0.,-1.));
#317=DIRECTION('',(-0.998872048100217,-0.0474829603550388,0.));
#318=DIRECTION('',(0.,0.,-1.));
#319=DIRECTION('',(0.998872048100217,0.0474829603550388,0.));
#320=DIRECTION('',(0.,0.,-1.));
#321=DIRECTION('',(0.998872048100217,0.0474829603550388,0.));
#322=DIRECTION('',(0.,0.,-1.));
#323=DIRECTION('',(0.998872048100217,0.0474829603550388,0.));
#324=DIRECTION('',(0.,0.,-1.));
#325=DIRECTION('',(-0.998872048100217,-0.0474829603550388,0.));
#326=DIRECTION('',(0.,0.,-1.));
#327=DIRECTION('',(0.998872048100217,0.0474829603550388,0.));
#328=DIRECTION('',(0.,0.,-1.));
#329=DIRECTION('',(-0.998872048100217,-0.0474829603550388,0.));
#330=DIRECTION('',(0.,0.,-1.));
#331=DIRECTION('',(0.998872048100217,0.0474829603550388,3.28857530990864E-17));
#332=DIRECTION('',(0.,0.,-1.));
#333=DIRECTION('',(-0.998872048100217,-0.0474829603550388,0.));
#334=DIRECTION('',(0.,0.,-1.));
#335=DIRECTION('',(0.998872048100217,0.0474829603550388,0.));
#336=DIRECTION('',(0.,0.,-1.));
#337=DIRECTION('',(-0.998872048100217,-0.0474829603550388,0.));
#338=DIRECTION('',(0.,0.,-1.));
#339=DIRECTION('',(0.998872048100217,0.0474829603550388,0.));
#340=DIRECTION('',(0.,0.,-1.));
#341=DIRECTION('',(0.998872048100217,0.0474829603550388,0.));
#342=DIRECTION('',(0.,0.,1.));
#343=DIRECTION('',(-0.998872048100217,-0.0474829603550388,0.));
#344=DIRECTION('',(0.,0.,-1.));
#345=DIRECTION('',(-1.,0.,0.));
#346=DIRECTION('',(3.69778549322349E-32,0.,-1.));
#347=DIRECTION('',(-1.,0.,0.));
#348=DIRECTION('',(0.,0.,1.));
#349=DIRECTION('',(1.,0.,0.));
#350=DIRECTION('',(0.,0.,-1.));
#351=DIRECTION('',(1.,0.,0.));
#352=DIRECTION('',(0.,0.,1.));
#353=DIRECTION('',(-1.,0.,0.));
#354=CARTESIAN_POINT('',(0.,0.,0.));
#355=CARTESIAN_POINT('CRP',(-6.,0.,-14.4));
#356=CARTESIAN_POINT('',(0.,0.,0.));
#357=CARTESIAN_POINT('',(0.,0.,0.));
#358=CARTESIAN_POINT('',(0.,0.,-14.4));
#359=CARTESIAN_POINT('',(-6.,0.,-8.4));
#360=CARTESIAN_POINT('',(-6.,0.,-11.9147186257614));
#361=CARTESIAN_POINT('',(-3.51471862576143,0.,-14.4));
#362=CARTESIAN_POINT('',(-3.67394039744206E-16,0.,-14.4));
#363=CARTESIAN_POINT('',(0.,0.,-12.2));
#364=CARTESIAN_POINT('',(0.,0.,-10.));
#365=CARTESIAN_POINT('',(0.,0.,-7.8));
#366=CARTESIAN_POINT('',(-2.,0.,-7.8));
#367=CARTESIAN_POINT('',(-4.,0.,-7.8));
#368=CARTESIAN_POINT('',(-6.,0.,-7.8));
#369=CARTESIAN_POINT('',(-6.,0.,-8.));
#370=CARTESIAN_POINT('',(-6.,0.,-8.2));
#371=CARTESIAN_POINT('',(-6.,0.,-8.4));
#372=CARTESIAN_POINT('',(0.,0.,0.));
#373=CARTESIAN_POINT('',(0.,0.,0.));
#374=CARTESIAN_POINT('',(0.,0.,-14.4));
#375=CARTESIAN_POINT('',(-2.73691106313441E-48,0.,2.5));
#376=CARTESIAN_POINT('',(-4.51377873796816,-0.214569601055505,2.5));
#377=CARTESIAN_POINT('',(-2.73691106313441E-48,0.,9.8));
#378=CARTESIAN_POINT('',(-3.74738325393817,-0.178137781330758,9.8));
#379=CARTESIAN_POINT('',(-2.73691106313441E-48,0.,9.8));
#380=CARTESIAN_POINT('',(-2.73691106313441E-48,0.,0.288483657273745));
#381=CARTESIAN_POINT('',(-4.59864079778044,-0.218603653093879,0.288483657273745));
#382=CARTESIAN_POINT('',(-2.73691106313441E-48,0.,2.5));
#383=CARTESIAN_POINT('',(-2.73691106313441E-48,0.,3.46944695195361E-15));
#384=CARTESIAN_POINT('',(-4.89808153655214,-0.232838041527135,3.46944695195361E-15));
#385=CARTESIAN_POINT('',(-2.73691106313441E-48,0.,0.300000000000002));
#386=CARTESIAN_POINT('',(-2.73691106313441E-48,0.,0.));
#387=CARTESIAN_POINT('',(-5.84340148138627,-0.277775318076977,0.));
#388=CARTESIAN_POINT('',(4.89808153655214,0.232838041527135,0.));
#389=CARTESIAN_POINT('',(-2.73691106313441E-48,0.,-6.02));
#390=CARTESIAN_POINT('',(-5.84340148138627,-0.277775318076977,-6.02));
#391=CARTESIAN_POINT('',(-2.73691106313441E-48,0.,24.));
#392=CARTESIAN_POINT('',(-2.73691106313441E-48,0.,-6.02));
#393=CARTESIAN_POINT('',(-5.9932322886013,-0.284897762130233,-6.02));
#394=CARTESIAN_POINT('',(5.84340148138627,0.277775318076977,-6.02));
#395=CARTESIAN_POINT('',(-2.73691106313441E-48,0.,-7.79999999999999));
#396=CARTESIAN_POINT('',(5.9932322886013,0.284897762130233,-7.79999999999999));
#397=CARTESIAN_POINT('',(-2.73691106313441E-48,0.,24.));
#398=CARTESIAN_POINT('',(-2.73691106313441E-48,0.,13.8));
#399=CARTESIAN_POINT('',(-2.24746210822549,-0.106836660798837,13.8));
#400=CARTESIAN_POINT('',(-2.10704441826516E-15,-1.00161684140702E-16,13.8));
#401=CARTESIAN_POINT('',(-2.73691106313441E-48,0.,13.3));
#402=CARTESIAN_POINT('',(-2.74689813227559,-0.130578140976357,13.3));
#403=CARTESIAN_POINT('',(-2.73691106313441E-48,0.,13.8));
#404=CARTESIAN_POINT('',(-2.73691106313441E-48,0.,10.3));
#405=CARTESIAN_POINT('',(-2.7468981322756,-0.130578140976357,10.3));
#406=CARTESIAN_POINT('',(-2.73691106313441E-48,0.,24.));
#407=CARTESIAN_POINT('',(-2.73691106313441E-48,0.,9.8));
#408=CARTESIAN_POINT('',(-3.2463341563257,-0.154319621153876,9.8));
#409=CARTESIAN_POINT('',(-2.73691106313441E-48,0.,10.3));
#410=CARTESIAN_POINT('',(3.2463341563257,0.154319621153876,9.8));
#411=CARTESIAN_POINT('',(-2.73691106313441E-48,0.,-7.79999999999999));
#412=CARTESIAN_POINT('',(0.,0.,-8.4));
#413=CARTESIAN_POINT('',(-6.,0.,-8.4));
#414=CARTESIAN_POINT('',(0.,0.,-8.4));
#415=CARTESIAN_POINT('',(0.,0.,-7.8));
#416=CARTESIAN_POINT('',(6.,0.,-7.8));
#417=CARTESIAN_POINT('',(0.,0.,24.));
#418=CARTESIAN_POINT('',(0.,0.,-7.8));
#419=MECHANICAL_DESIGN_GEOMETRIC_PRESENTATION_REPRESENTATION('',(#220,#221,
#222,#223,#224,#225,#226,#227,#228,#229),#420);
#420=(
GEOMETRIC_REPRESENTATION_CONTEXT(3)
GLOBAL_UNCERTAINTY_ASSIGNED_CONTEXT((#421))
GLOBAL_UNIT_ASSIGNED_CONTEXT((#427,#423,#422))
REPRESENTATION_CONTEXT('XSB540E12120D1BZ4A_Basic',
'TOP_LEVEL_ASSEMBLY_PART')
);
#421=UNCERTAINTY_MEASURE_WITH_UNIT(LENGTH_MEASURE(2.E-5),#427,
'DISTANCE_ACCURACY_VALUE','Maximum Tolerance applied to model');
#422=(
NAMED_UNIT(*)
SI_UNIT($,.STERADIAN.)
SOLID_ANGLE_UNIT()
);
#423=(
CONVERSION_BASED_UNIT('DEGREE',#425)
NAMED_UNIT(#424)
PLANE_ANGLE_UNIT()
);
#424=DIMENSIONAL_EXPONENTS(0.,0.,0.,0.,0.,0.,0.);
#425=PLANE_ANGLE_MEASURE_WITH_UNIT(PLANE_ANGLE_MEASURE(0.0174532925),#426);
#426=(
NAMED_UNIT(*)
PLANE_ANGLE_UNIT()
SI_UNIT($,.RADIAN.)
);
#427=(
LENGTH_UNIT()
NAMED_UNIT(*)
SI_UNIT(.MILLI.,.METRE.)
);
ENDSEC;
END-ISO-10303-21;
