ISO-10303-21;
HEADER;
/* Generated by software containing ST-Developer
 * from STEP Tools, Inc. (www.steptools.com) 
 */
/* OPTION: using custom schema-name function */

FILE_DESCRIPTION(
/* description */ (''),
/* implementation_level */ '2;1');

FILE_NAME(
/* name */ 'XSB720E10100D3BZ6_Basic.stp',
/* time_stamp */ '2023-03-19T12:49:18+05:00',
/* author */ (''),
/* organization */ (''),
/* preprocessor_version */ 'ST-DEVELOPER v16.7',
/* originating_system */ 'SIEMENS PLM Software NX 12.0',
/* authorisation */ '');

FILE_SCHEMA (('AUTOMOTIVE_DESIGN { 1 0 10303 214 3 1 1 1 }'));
ENDSEC;

DATA;
#10=CONSTRUCTIVE_GEOMETRY_REPRESENTATION_RELATIONSHIP(
'supplemental geometry','',#34,#11);
#11=CONSTRUCTIVE_GEOMETRY_REPRESENTATION('supplemental geometry',(#253,
#254,#255),#420);
#12=GEOMETRICALLY_BOUNDED_WIREFRAME_SHAPE_REPRESENTATION(
'inpu240C7A87r8yj-None',(#35),#420);
#13=PROPERTY_DEFINITION_REPRESENTATION(#17,#15);
#14=PROPERTY_DEFINITION_REPRESENTATION(#18,#16);
#15=REPRESENTATION('',(#19),#420);
#16=REPRESENTATION('',(#20),#420);
#17=PROPERTY_DEFINITION('pmi validation property','',#25);
#18=PROPERTY_DEFINITION('pmi validation property','',#25);
#19=VALUE_REPRESENTATION_ITEM('number of annotations',COUNT_MEASURE(0.));
#20=VALUE_REPRESENTATION_ITEM('number of views',COUNT_MEASURE(0.));
#21=SHAPE_REPRESENTATION_RELATIONSHIP('None',
'relationship between inpu240C7A87r8yj-None and inpu240C7A87r8yj-None',
#34,#23);
#22=SHAPE_REPRESENTATION_RELATIONSHIP('None',
'relationship between inpu240C7A87r8yj-None and inpu240C7A87r8yj-None',
#34,#12);
#23=ADVANCED_BREP_SHAPE_REPRESENTATION('inpu240C7A87r8yj-None',(#47,#48),
#420);
#24=SHAPE_DEFINITION_REPRESENTATION(#25,#34);
#25=PRODUCT_DEFINITION_SHAPE('','',#26);
#26=PRODUCT_DEFINITION(' ','',#28,#27);
#27=PRODUCT_DEFINITION_CONTEXT('part definition',#33,'design');
#28=PRODUCT_DEFINITION_FORMATION_WITH_SPECIFIED_SOURCE(' ',' ',#30,
 .NOT_KNOWN.);
#29=PRODUCT_RELATED_PRODUCT_CATEGORY('part','',(#30));
#30=PRODUCT('inpu240C7A87r8yj','inpu240C7A87r8yj',' ',(#31));
#31=PRODUCT_CONTEXT(' ',#33,'mechanical');
#32=APPLICATION_PROTOCOL_DEFINITION('international standard',
'automotive_design',2010,#33);
#33=APPLICATION_CONTEXT(
'core data for automotive mechanical design processes');
#34=SHAPE_REPRESENTATION('inpu240C7A87r8yj-None',(#252),#420);
#35=GEOMETRIC_CURVE_SET('None',(#355,#356,#357,#358,#217));
#36=SPHERICAL_SURFACE('',#285,5.);
#37=SURFACE_STYLE_USAGE(.BOTH.,#39);
#38=SURFACE_STYLE_USAGE(.BOTH.,#40);
#39=SURFACE_SIDE_STYLE('',(#41));
#40=SURFACE_SIDE_STYLE('',(#42));
#41=SURFACE_STYLE_FILL_AREA(#43);
#42=SURFACE_STYLE_FILL_AREA(#44);
#43=FILL_AREA_STYLE('',(#45));
#44=FILL_AREA_STYLE('',(#46));
#45=FILL_AREA_STYLE_COLOUR('',#250);
#46=FILL_AREA_STYLE_COLOUR('',#251);
#47=MANIFOLD_SOLID_BREP('NOCUT',#49);
#48=MANIFOLD_SOLID_BREP('CUT',#50);
#49=CLOSED_SHELL('',(#67,#68,#69,#70,#71,#72,#73,#74,#75,#76,#77,#78,#79));
#50=CLOSED_SHELL('',(#80,#81,#82));
#51=FACE_OUTER_BOUND('',#124,.T.);
#52=FACE_OUTER_BOUND('',#125,.T.);
#53=FACE_OUTER_BOUND('',#134,.T.);
#54=FACE_OUTER_BOUND('',#137,.T.);
#55=CYLINDRICAL_SURFACE('',#266,4.85);
#56=CYLINDRICAL_SURFACE('',#270,5.);
#57=CYLINDRICAL_SURFACE('',#277,2.2);
#58=CYLINDRICAL_SURFACE('',#284,5.);
#59=PLANE('',#264);
#60=PLANE('',#268);
#61=PLANE('',#271);
#62=PLANE('',#273);
#63=PLANE('',#280);
#64=PLANE('',#282);
#65=TOROIDAL_SURFACE('',#262,3.91361257567267,0.299999999999999);
#66=TOROIDAL_SURFACE('',#279,2.7,0.5);
#67=ADVANCED_FACE('',(#86,#87),#83,.T.);
#68=ADVANCED_FACE('',(#88,#89),#84,.T.);
#69=ADVANCED_FACE('',(#90,#91),#65,.F.);
#70=ADVANCED_FACE('',(#92,#93),#59,.F.);
#71=ADVANCED_FACE('',(#94,#95),#55,.T.);
#72=ADVANCED_FACE('',(#96,#97),#60,.F.);
#73=ADVANCED_FACE('',(#98,#99),#56,.T.);
#74=ADVANCED_FACE('',(#51),#61,.F.);
#75=ADVANCED_FACE('',(#52),#62,.F.);
#76=ADVANCED_FACE('',(#100,#101),#85,.T.);
#77=ADVANCED_FACE('',(#102,#103),#57,.T.);
#78=ADVANCED_FACE('',(#104,#105),#66,.F.);
#79=ADVANCED_FACE('',(#106,#107),#63,.F.);
#80=ADVANCED_FACE('',(#53),#64,.T.);
#81=ADVANCED_FACE('',(#108,#109),#58,.T.);
#82=ADVANCED_FACE('',(#54),#36,.T.);
#83=CONICAL_SURFACE('',#258,2.95565854503112,6.00000000000001);
#84=CONICAL_SURFACE('',#260,3.54424226251891,2.20000000000004);
#85=CONICAL_SURFACE('',#275,1.7,45.);
#86=FACE_BOUND('',#110,.T.);
#87=FACE_BOUND('',#111,.T.);
#88=FACE_BOUND('',#112,.T.);
#89=FACE_BOUND('',#113,.T.);
#90=FACE_BOUND('',#114,.T.);
#91=FACE_BOUND('',#115,.T.);
#92=FACE_BOUND('',#116,.T.);
#93=FACE_BOUND('',#117,.T.);
#94=FACE_BOUND('',#118,.T.);
#95=FACE_BOUND('',#119,.T.);
#96=FACE_BOUND('',#120,.T.);
#97=FACE_BOUND('',#121,.T.);
#98=FACE_BOUND('',#122,.T.);
#99=FACE_BOUND('',#123,.T.);
#100=FACE_BOUND('',#126,.T.);
#101=FACE_BOUND('',#127,.T.);
#102=FACE_BOUND('',#128,.T.);
#103=FACE_BOUND('',#129,.T.);
#104=FACE_BOUND('',#130,.T.);
#105=FACE_BOUND('',#131,.T.);
#106=FACE_BOUND('',#132,.T.);
#107=FACE_BOUND('',#133,.T.);
#108=FACE_BOUND('',#135,.T.);
#109=FACE_BOUND('',#136,.T.);
#110=EDGE_LOOP('',(#138));
#111=EDGE_LOOP('',(#139));
#112=EDGE_LOOP('',(#140));
#113=EDGE_LOOP('',(#141));
#114=EDGE_LOOP('',(#142));
#115=EDGE_LOOP('',(#143));
#116=EDGE_LOOP('',(#144));
#117=EDGE_LOOP('',(#145));
#118=EDGE_LOOP('',(#146));
#119=EDGE_LOOP('',(#147));
#120=EDGE_LOOP('',(#148));
#121=EDGE_LOOP('',(#149));
#122=EDGE_LOOP('',(#150));
#123=EDGE_LOOP('',(#151));
#124=EDGE_LOOP('',(#152));
#125=EDGE_LOOP('',(#153));
#126=EDGE_LOOP('',(#154));
#127=EDGE_LOOP('',(#155));
#128=EDGE_LOOP('',(#156));
#129=EDGE_LOOP('',(#157));
#130=EDGE_LOOP('',(#158));
#131=EDGE_LOOP('',(#159));
#132=EDGE_LOOP('',(#160));
#133=EDGE_LOOP('',(#161));
#134=EDGE_LOOP('',(#162));
#135=EDGE_LOOP('',(#163));
#136=EDGE_LOOP('',(#164));
#137=EDGE_LOOP('',(#165));
#138=ORIENTED_EDGE('',*,*,#180,.F.);
#139=ORIENTED_EDGE('',*,*,#181,.T.);
#140=ORIENTED_EDGE('',*,*,#182,.F.);
#141=ORIENTED_EDGE('',*,*,#180,.T.);
#142=ORIENTED_EDGE('',*,*,#183,.F.);
#143=ORIENTED_EDGE('',*,*,#182,.T.);
#144=ORIENTED_EDGE('',*,*,#184,.F.);
#145=ORIENTED_EDGE('',*,*,#183,.T.);
#146=ORIENTED_EDGE('',*,*,#185,.F.);
#147=ORIENTED_EDGE('',*,*,#184,.T.);
#148=ORIENTED_EDGE('',*,*,#186,.F.);
#149=ORIENTED_EDGE('',*,*,#185,.T.);
#150=ORIENTED_EDGE('',*,*,#187,.F.);
#151=ORIENTED_EDGE('',*,*,#186,.T.);
#152=ORIENTED_EDGE('',*,*,#187,.T.);
#153=ORIENTED_EDGE('',*,*,#188,.F.);
#154=ORIENTED_EDGE('',*,*,#189,.F.);
#155=ORIENTED_EDGE('',*,*,#188,.T.);
#156=ORIENTED_EDGE('',*,*,#190,.F.);
#157=ORIENTED_EDGE('',*,*,#189,.T.);
#158=ORIENTED_EDGE('',*,*,#191,.F.);
#159=ORIENTED_EDGE('',*,*,#190,.T.);
#160=ORIENTED_EDGE('',*,*,#181,.F.);
#161=ORIENTED_EDGE('',*,*,#191,.T.);
#162=ORIENTED_EDGE('',*,*,#192,.T.);
#163=ORIENTED_EDGE('',*,*,#193,.F.);
#164=ORIENTED_EDGE('',*,*,#192,.F.);
#165=ORIENTED_EDGE('',*,*,#193,.T.);
#166=VERTEX_POINT('',#376);
#167=VERTEX_POINT('',#378);
#168=VERTEX_POINT('',#381);
#169=VERTEX_POINT('',#384);
#170=VERTEX_POINT('',#387);
#171=VERTEX_POINT('',#390);
#172=VERTEX_POINT('',#393);
#173=VERTEX_POINT('',#396);
#174=VERTEX_POINT('',#400);
#175=VERTEX_POINT('',#403);
#176=VERTEX_POINT('',#406);
#177=VERTEX_POINT('',#409);
#178=VERTEX_POINT('',#413);
#179=VERTEX_POINT('',#416);
#180=EDGE_CURVE('',#166,#166,#194,.T.);
#181=EDGE_CURVE('',#167,#167,#195,.T.);
#182=EDGE_CURVE('',#168,#168,#196,.T.);
#183=EDGE_CURVE('',#169,#169,#197,.T.);
#184=EDGE_CURVE('',#170,#170,#198,.T.);
#185=EDGE_CURVE('',#171,#171,#199,.T.);
#186=EDGE_CURVE('',#172,#172,#200,.T.);
#187=EDGE_CURVE('',#173,#173,#201,.T.);
#188=EDGE_CURVE('',#174,#174,#202,.T.);
#189=EDGE_CURVE('',#175,#175,#203,.T.);
#190=EDGE_CURVE('',#176,#176,#204,.T.);
#191=EDGE_CURVE('',#177,#177,#205,.T.);
#192=EDGE_CURVE('',#178,#178,#206,.T.);
#193=EDGE_CURVE('',#179,#179,#207,.T.);
#194=CIRCLE('',#256,3.54424226251891);
#195=CIRCLE('',#257,2.95565854503112);
#196=CIRCLE('',#259,3.61383370074949);
#197=CIRCLE('',#261,3.91361257567267);
#198=CIRCLE('',#263,4.85);
#199=CIRCLE('',#265,4.85);
#200=CIRCLE('',#267,5.);
#201=CIRCLE('',#269,5.);
#202=CIRCLE('',#272,1.7);
#203=CIRCLE('',#274,2.2);
#204=CIRCLE('',#276,2.2);
#205=CIRCLE('',#278,2.7);
#206=CIRCLE('',#281,5.);
#207=CIRCLE('',#283,5.);
#208=CURVE_STYLE('',#213,POSITIVE_LENGTH_MEASURE(0.18),#212);
#209=CURVE_STYLE('',#214,POSITIVE_LENGTH_MEASURE(0.18),#249);
#210=CURVE_STYLE('',#215,POSITIVE_LENGTH_MEASURE(0.18),#249);
#211=CURVE_STYLE('',#216,POSITIVE_LENGTH_MEASURE(0.18),#249);
#212=DRAUGHTING_PRE_DEFINED_COLOUR('blue');
#213=DRAUGHTING_PRE_DEFINED_CURVE_FONT('continuous');
#214=DRAUGHTING_PRE_DEFINED_CURVE_FONT('continuous');
#215=DRAUGHTING_PRE_DEFINED_CURVE_FONT('continuous');
#216=DRAUGHTING_PRE_DEFINED_CURVE_FONT('continuous');
#217=TRIMMED_CURVE('CUTTING PART LINE',#218,(PARAMETER_VALUE(0.)),(
PARAMETER_VALUE(1.)),.T.,.PARAMETER.);
#218=(
BOUNDED_CURVE()
B_SPLINE_CURVE(3,(#359,#360,#361,#362,#363,#364,#365,#366,#367,#368,#369,
#370,#371),.UNSPECIFIED.,.T.,.F.)
B_SPLINE_CURVE_WITH_KNOTS((1,3,3,3,3,3,1),(-0.264173002900804,0.,0.207480991297588,
0.603740495650115,0.735826997099196,1.,1.20748099129759),.UNSPECIFIED.)
CURVE()
GEOMETRIC_REPRESENTATION_ITEM()
RATIONAL_B_SPLINE_CURVE((0.585786437626905,0.471404520791032,0.471404520791032,
0.585786437626905,0.585786437626905,0.585786437626905,0.585786437626905,
0.585786437626905,0.585786437626905,0.585786437626905,0.585786437626905,
0.585786437626905,0.585786437626905))
REPRESENTATION_ITEM('CUTTING PART LINE')
);
#219=PRESENTATION_LAYER_ASSIGNMENT('1','Layer 1',(#355,#356,#357,#358,#217,
#253,#254,#255,#47,#48));
#220=STYLED_ITEM('',(#230),#355);
#221=STYLED_ITEM('',(#231),#356);
#222=STYLED_ITEM('',(#232),#357);
#223=STYLED_ITEM('',(#233),#358);
#224=STYLED_ITEM('',(#234),#217);
#225=STYLED_ITEM('',(#235),#253);
#226=STYLED_ITEM('',(#236),#254);
#227=STYLED_ITEM('',(#237),#255);
#228=STYLED_ITEM('',(#238),#47);
#229=STYLED_ITEM('',(#239),#48);
#230=PRESENTATION_STYLE_ASSIGNMENT((#240));
#231=PRESENTATION_STYLE_ASSIGNMENT((#241));
#232=PRESENTATION_STYLE_ASSIGNMENT((#242));
#233=PRESENTATION_STYLE_ASSIGNMENT((#243));
#234=PRESENTATION_STYLE_ASSIGNMENT((#208));
#235=PRESENTATION_STYLE_ASSIGNMENT((#209));
#236=PRESENTATION_STYLE_ASSIGNMENT((#210));
#237=PRESENTATION_STYLE_ASSIGNMENT((#211));
#238=PRESENTATION_STYLE_ASSIGNMENT((#37));
#239=PRESENTATION_STYLE_ASSIGNMENT((#38));
#240=POINT_STYLE('',#244,POSITIVE_LENGTH_MEASURE(3.),#248);
#241=POINT_STYLE('',#245,POSITIVE_LENGTH_MEASURE(3.),#249);
#242=POINT_STYLE('',#246,POSITIVE_LENGTH_MEASURE(3.),#249);
#243=POINT_STYLE('',#247,POSITIVE_LENGTH_MEASURE(3.),#249);
#244=PRE_DEFINED_POINT_MARKER_SYMBOL('plus');
#245=PRE_DEFINED_POINT_MARKER_SYMBOL('plus');
#246=PRE_DEFINED_POINT_MARKER_SYMBOL('plus');
#247=PRE_DEFINED_POINT_MARKER_SYMBOL('plus');
#248=COLOUR_RGB('Medium Royal',0.2,0.4,0.8);
#249=COLOUR_RGB('Pale Maroon',0.811749446860456,0.603921568627451,0.611749446860456);
#250=COLOUR_RGB('Medium Gray',0.490196078431373,0.490196078431373,0.490196078431373);
#251=COLOUR_RGB('Light Gray',0.8,0.8,0.8);
#252=AXIS2_PLACEMENT_3D('',#354,#286,#287);
#253=AXIS2_PLACEMENT_3D('MCS',#372,#288,#289);
#254=AXIS2_PLACEMENT_3D('PCS',#373,#290,#291);
#255=AXIS2_PLACEMENT_3D('CIP',#374,#292,#293);
#256=AXIS2_PLACEMENT_3D('',#375,#294,#295);
#257=AXIS2_PLACEMENT_3D('',#377,#296,#297);
#258=AXIS2_PLACEMENT_3D('',#379,#298,#299);
#259=AXIS2_PLACEMENT_3D('',#380,#300,#301);
#260=AXIS2_PLACEMENT_3D('',#382,#302,#303);
#261=AXIS2_PLACEMENT_3D('',#383,#304,#305);
#262=AXIS2_PLACEMENT_3D('',#385,#306,#307);
#263=AXIS2_PLACEMENT_3D('',#386,#308,#309);
#264=AXIS2_PLACEMENT_3D('',#388,#310,#311);
#265=AXIS2_PLACEMENT_3D('',#389,#312,#313);
#266=AXIS2_PLACEMENT_3D('',#391,#314,#315);
#267=AXIS2_PLACEMENT_3D('',#392,#316,#317);
#268=AXIS2_PLACEMENT_3D('',#394,#318,#319);
#269=AXIS2_PLACEMENT_3D('',#395,#320,#321);
#270=AXIS2_PLACEMENT_3D('',#397,#322,#323);
#271=AXIS2_PLACEMENT_3D('',#398,#324,#325);
#272=AXIS2_PLACEMENT_3D('',#399,#326,#327);
#273=AXIS2_PLACEMENT_3D('',#401,#328,#329);
#274=AXIS2_PLACEMENT_3D('',#402,#330,#331);
#275=AXIS2_PLACEMENT_3D('',#404,#332,#333);
#276=AXIS2_PLACEMENT_3D('',#405,#334,#335);
#277=AXIS2_PLACEMENT_3D('',#407,#336,#337);
#278=AXIS2_PLACEMENT_3D('',#408,#338,#339);
#279=AXIS2_PLACEMENT_3D('',#410,#340,#341);
#280=AXIS2_PLACEMENT_3D('',#411,#342,#343);
#281=AXIS2_PLACEMENT_3D('',#412,#344,#345);
#282=AXIS2_PLACEMENT_3D('',#414,#346,#347);
#283=AXIS2_PLACEMENT_3D('',#415,#348,#349);
#284=AXIS2_PLACEMENT_3D('',#417,#350,#351);
#285=AXIS2_PLACEMENT_3D('',#418,#352,#353);
#286=DIRECTION('',(0.,0.,1.));
#287=DIRECTION('',(1.,0.,0.));
#288=DIRECTION('',(0.,0.,1.));
#289=DIRECTION('',(1.,0.,0.));
#290=DIRECTION('',(0.,0.,1.));
#291=DIRECTION('',(1.,0.,0.));
#292=DIRECTION('',(0.,0.,1.));
#293=DIRECTION('',(1.,0.,0.));
#294=DIRECTION('',(0.,0.,-1.));
#295=DIRECTION('',(-1.,0.,0.));
#296=DIRECTION('',(0.,0.,-1.));
#297=DIRECTION('',(-1.,0.,0.));
#298=DIRECTION('',(0.,0.,-1.));
#299=DIRECTION('',(-1.,0.,3.69227088241993E-16));
#300=DIRECTION('',(0.,0.,-1.));
#301=DIRECTION('',(-1.,0.,0.));
#302=DIRECTION('',(0.,0.,-1.));
#303=DIRECTION('',(-1.,0.,-2.27380734350791E-16));
#304=DIRECTION('',(0.,0.,-1.));
#305=DIRECTION('',(-1.,0.,0.));
#306=DIRECTION('',(0.,0.,-1.));
#307=DIRECTION('',(-1.,0.,0.));
#308=DIRECTION('',(0.,0.,-1.));
#309=DIRECTION('',(-1.,0.,0.));
#310=DIRECTION('',(0.,0.,-1.));
#311=DIRECTION('',(-1.,0.,0.));
#312=DIRECTION('',(0.,0.,-1.));
#313=DIRECTION('',(-1.,0.,0.));
#314=DIRECTION('',(0.,0.,-1.));
#315=DIRECTION('',(-1.,0.,0.));
#316=DIRECTION('',(0.,0.,-1.));
#317=DIRECTION('',(-1.,0.,0.));
#318=DIRECTION('',(0.,0.,-1.));
#319=DIRECTION('',(-1.,0.,0.));
#320=DIRECTION('',(0.,0.,-1.));
#321=DIRECTION('',(1.,0.,0.));
#322=DIRECTION('',(0.,0.,-1.));
#323=DIRECTION('',(-1.,0.,0.));
#324=DIRECTION('',(0.,0.,1.));
#325=DIRECTION('',(1.,0.,0.));
#326=DIRECTION('',(0.,0.,-1.));
#327=DIRECTION('',(-1.,0.,0.));
#328=DIRECTION('',(0.,0.,-1.));
#329=DIRECTION('',(-1.,0.,0.));
#330=DIRECTION('',(0.,0.,-1.));
#331=DIRECTION('',(-1.,0.,0.));
#332=DIRECTION('',(0.,0.,-1.));
#333=DIRECTION('',(-1.,0.,-1.21224561563718E-17));
#334=DIRECTION('',(0.,0.,-1.));
#335=DIRECTION('',(-1.,0.,0.));
#336=DIRECTION('',(0.,0.,-1.));
#337=DIRECTION('',(-1.,0.,0.));
#338=DIRECTION('',(0.,0.,-1.));
#339=DIRECTION('',(-1.,0.,0.));
#340=DIRECTION('',(0.,0.,-1.));
#341=DIRECTION('',(-1.,0.,0.));
#342=DIRECTION('',(0.,0.,-1.));
#343=DIRECTION('',(-1.,0.,0.));
#344=DIRECTION('',(0.,0.,1.));
#345=DIRECTION('',(1.,0.,0.));
#346=DIRECTION('',(0.,0.,1.));
#347=DIRECTION('',(1.,0.,0.));
#348=DIRECTION('',(0.,0.,-1.));
#349=DIRECTION('',(-1.,0.,0.));
#350=DIRECTION('',(0.,0.,-1.));
#351=DIRECTION('',(-1.,0.,0.));
#352=DIRECTION('',(6.12323399573678E-17,0.,-1.));
#353=DIRECTION('',(1.,0.,0.));
#354=CARTESIAN_POINT('',(0.,0.,0.));
#355=CARTESIAN_POINT('CRP',(-5.,0.,-21.8));
#356=CARTESIAN_POINT('',(0.,0.,0.));
#357=CARTESIAN_POINT('',(0.,0.,0.));
#358=CARTESIAN_POINT('',(0.,0.,-21.8));
#359=CARTESIAN_POINT('',(-5.,0.,-16.8));
#360=CARTESIAN_POINT('',(-5.,0.,-19.7289321881345));
#361=CARTESIAN_POINT('',(-2.92893218813453,0.,-21.8));
#362=CARTESIAN_POINT('',(-3.06161699786838E-16,0.,-21.8));
#363=CARTESIAN_POINT('',(0.,0.,-16.8));
#364=CARTESIAN_POINT('',(0.,0.,-11.8));
#365=CARTESIAN_POINT('',(0.,0.,-6.8));
#366=CARTESIAN_POINT('',(-1.66666666666667,0.,-6.8));
#367=CARTESIAN_POINT('',(-3.33333333333333,0.,-6.8));
#368=CARTESIAN_POINT('',(-5.,0.,-6.8));
#369=CARTESIAN_POINT('',(-5.,0.,-10.1333333333333));
#370=CARTESIAN_POINT('',(-5.,0.,-13.4666666666667));
#371=CARTESIAN_POINT('',(-5.,0.,-16.8));
#372=CARTESIAN_POINT('',(0.,0.,0.));
#373=CARTESIAN_POINT('',(0.,0.,0.));
#374=CARTESIAN_POINT('',(0.,0.,-21.8));
#375=CARTESIAN_POINT('',(0.,0.,2.1));
#376=CARTESIAN_POINT('',(-3.54424226251891,0.,2.1));
#377=CARTESIAN_POINT('',(0.,0.,7.7));
#378=CARTESIAN_POINT('',(-2.95565854503112,0.,7.7));
#379=CARTESIAN_POINT('',(0.,0.,7.7));
#380=CARTESIAN_POINT('',(0.,0.,0.2884836572737));
#381=CARTESIAN_POINT('',(-3.61383370074949,0.,0.2884836572737));
#382=CARTESIAN_POINT('',(0.,0.,2.1));
#383=CARTESIAN_POINT('',(0.,0.,0.));
#384=CARTESIAN_POINT('',(-3.91361257567267,0.,0.));
#385=CARTESIAN_POINT('',(0.,0.,0.300000000000002));
#386=CARTESIAN_POINT('',(0.,0.,0.));
#387=CARTESIAN_POINT('',(-4.85,0.,0.));
#388=CARTESIAN_POINT('',(3.91361257567267,0.,0.));
#389=CARTESIAN_POINT('',(0.,0.,-6.3));
#390=CARTESIAN_POINT('',(-4.85,0.,-6.3));
#391=CARTESIAN_POINT('',(0.,0.,24.));
#392=CARTESIAN_POINT('',(0.,0.,-6.3));
#393=CARTESIAN_POINT('',(-5.,0.,-6.3));
#394=CARTESIAN_POINT('',(4.85,0.,-6.3));
#395=CARTESIAN_POINT('',(0.,0.,-6.8));
#396=CARTESIAN_POINT('',(5.,0.,-6.8));
#397=CARTESIAN_POINT('',(0.,0.,24.));
#398=CARTESIAN_POINT('',(5.05,0.,-6.8));
#399=CARTESIAN_POINT('',(0.,0.,11.2));
#400=CARTESIAN_POINT('',(-1.7,0.,11.2));
#401=CARTESIAN_POINT('',(-1.37160441504504E-15,0.,11.2));
#402=CARTESIAN_POINT('',(0.,0.,10.7));
#403=CARTESIAN_POINT('',(-2.2,0.,10.7));
#404=CARTESIAN_POINT('',(0.,0.,11.2));
#405=CARTESIAN_POINT('',(0.,0.,8.2));
#406=CARTESIAN_POINT('',(-2.2,0.,8.2));
#407=CARTESIAN_POINT('',(0.,0.,24.));
#408=CARTESIAN_POINT('',(0.,0.,7.7));
#409=CARTESIAN_POINT('',(-2.7,0.,7.7));
#410=CARTESIAN_POINT('',(0.,0.,8.2));
#411=CARTESIAN_POINT('',(2.7,0.,7.7));
#412=CARTESIAN_POINT('',(0.,0.,-6.8));
#413=CARTESIAN_POINT('',(5.,0.,-6.8));
#414=CARTESIAN_POINT('',(0.,0.,-6.8));
#415=CARTESIAN_POINT('',(0.,0.,-16.8));
#416=CARTESIAN_POINT('',(-5.,0.,-16.8));
#417=CARTESIAN_POINT('',(0.,0.,24.));
#418=CARTESIAN_POINT('',(0.,0.,-16.8));
#419=MECHANICAL_DESIGN_GEOMETRIC_PRESENTATION_REPRESENTATION('',(#220,#221,
#222,#223,#224,#225,#226,#227,#228,#229),#420);
#420=(
GEOMETRIC_REPRESENTATION_CONTEXT(3)
GLOBAL_UNCERTAINTY_ASSIGNED_CONTEXT((#421))
GLOBAL_UNIT_ASSIGNED_CONTEXT((#427,#423,#422))
REPRESENTATION_CONTEXT('XSB720E10100D3BZ6_Basic',
'TOP_LEVEL_ASSEMBLY_PART')
);
#421=UNCERTAINTY_MEASURE_WITH_UNIT(LENGTH_MEASURE(2.E-5),#427,
'DISTANCE_ACCURACY_VALUE','Maximum Tolerance applied to model');
#422=(
NAMED_UNIT(*)
SI_UNIT($,.STERADIAN.)
SOLID_ANGLE_UNIT()
);
#423=(
CONVERSION_BASED_UNIT('DEGREE',#425)
NAMED_UNIT(#424)
PLANE_ANGLE_UNIT()
);
#424=DIMENSIONAL_EXPONENTS(0.,0.,0.,0.,0.,0.,0.);
#425=PLANE_ANGLE_MEASURE_WITH_UNIT(PLANE_ANGLE_MEASURE(0.0174532925),#426);
#426=(
NAMED_UNIT(*)
PLANE_ANGLE_UNIT()
SI_UNIT($,.RADIAN.)
);
#427=(
LENGTH_UNIT()
NAMED_UNIT(*)
SI_UNIT(.MILLI.,.METRE.)
);
ENDSEC;
END-ISO-10303-21;
