ISO-10303-21;
HEADER;
/* Generated by software containing ST-Developer
 * from STEP Tools, Inc. (www.steptools.com) 
 */
/* OPTION: using custom schema-name function */

FILE_DESCRIPTION(
/* description */ (''),
/* implementation_level */ '2;1');

FILE_NAME(
/* name */ 'XSE720E16.625D3SZ6_Basic.stp',
/* time_stamp */ '2023-03-20T13:51:38+05:00',
/* author */ (''),
/* organization */ (''),
/* preprocessor_version */ 'ST-DEVELOPER v16.7',
/* originating_system */ 'SIEMENS PLM Software NX 12.0',
/* authorisation */ '');

FILE_SCHEMA (('AUTOMOTIVE_DESIGN { 1 0 10303 214 3 1 1 1 }'));
ENDSEC;

DATA;
#10=CONSTRUCTIVE_GEOMETRY_REPRESENTATION_RELATIONSHIP(
'supplemental geometry','',#34,#11);
#11=CONSTRUCTIVE_GEOMETRY_REPRESENTATION('supplemental geometry',(#251,
#252,#253),#418);
#12=GEOMETRICALLY_BOUNDED_WIREFRAME_SHAPE_REPRESENTATION(
'inpu3010496Fsxei-None',(#35),#418);
#13=PROPERTY_DEFINITION_REPRESENTATION(#17,#15);
#14=PROPERTY_DEFINITION_REPRESENTATION(#18,#16);
#15=REPRESENTATION('',(#19),#418);
#16=REPRESENTATION('',(#20),#418);
#17=PROPERTY_DEFINITION('pmi validation property','',#25);
#18=PROPERTY_DEFINITION('pmi validation property','',#25);
#19=VALUE_REPRESENTATION_ITEM('number of annotations',COUNT_MEASURE(0.));
#20=VALUE_REPRESENTATION_ITEM('number of views',COUNT_MEASURE(0.));
#21=SHAPE_REPRESENTATION_RELATIONSHIP('None',
'relationship between inpu3010496Fsxei-None and inpu3010496Fsxei-None',
#34,#23);
#22=SHAPE_REPRESENTATION_RELATIONSHIP('None',
'relationship between inpu3010496Fsxei-None and inpu3010496Fsxei-None',
#34,#12);
#23=ADVANCED_BREP_SHAPE_REPRESENTATION('inpu3010496Fsxei-None',(#46,#47),
#418);
#24=SHAPE_DEFINITION_REPRESENTATION(#25,#34);
#25=PRODUCT_DEFINITION_SHAPE('','',#26);
#26=PRODUCT_DEFINITION(' ','',#28,#27);
#27=PRODUCT_DEFINITION_CONTEXT('part definition',#33,'design');
#28=PRODUCT_DEFINITION_FORMATION_WITH_SPECIFIED_SOURCE(' ',' ',#30,
 .NOT_KNOWN.);
#29=PRODUCT_RELATED_PRODUCT_CATEGORY('part','',(#30));
#30=PRODUCT('inpu3010496Fsxei','inpu3010496Fsxei',' ',(#31));
#31=PRODUCT_CONTEXT(' ',#33,'mechanical');
#32=APPLICATION_PROTOCOL_DEFINITION('international standard',
'automotive_design',2010,#33);
#33=APPLICATION_CONTEXT(
'core data for automotive mechanical design processes');
#34=SHAPE_REPRESENTATION('inpu3010496Fsxei-None',(#250),#418);
#35=GEOMETRIC_CURVE_SET('None',(#353,#354,#355,#356,#216));
#36=SURFACE_STYLE_USAGE(.BOTH.,#38);
#37=SURFACE_STYLE_USAGE(.BOTH.,#39);
#38=SURFACE_SIDE_STYLE('',(#40));
#39=SURFACE_SIDE_STYLE('',(#41));
#40=SURFACE_STYLE_FILL_AREA(#42);
#41=SURFACE_STYLE_FILL_AREA(#43);
#42=FILL_AREA_STYLE('',(#44));
#43=FILL_AREA_STYLE('',(#45));
#44=FILL_AREA_STYLE_COLOUR('',#248);
#45=FILL_AREA_STYLE_COLOUR('',#249);
#46=MANIFOLD_SOLID_BREP('NOCUT',#48);
#47=MANIFOLD_SOLID_BREP('CUT',#49);
#48=CLOSED_SHELL('',(#66,#67,#68,#69,#70,#71,#72,#73,#74,#75,#76,#77,#78));
#49=CLOSED_SHELL('',(#79,#80,#81));
#50=FACE_OUTER_BOUND('',#128,.T.);
#51=FACE_OUTER_BOUND('',#129,.T.);
#52=FACE_OUTER_BOUND('',#134,.T.);
#53=FACE_OUTER_BOUND('',#137,.T.);
#54=CONICAL_SURFACE('',#262,5.72434762182978,2.20000000000002);
#55=CONICAL_SURFACE('',#264,5.63155903752234,6.);
#56=CONICAL_SURFACE('',#272,3.5,45.);
#57=TOROIDAL_SURFACE('',#260,6.12405278839403,0.4);
#58=TOROIDAL_SURFACE('',#268,4.,0.5);
#59=PLANE('',#258);
#60=PLANE('',#266);
#61=PLANE('',#273);
#62=PLANE('',#275);
#63=PLANE('',#278);
#64=PLANE('',#280);
#65=PLANE('',#283);
#66=ADVANCED_FACE('',(#86,#87),#82,.T.);
#67=ADVANCED_FACE('',(#88,#89),#59,.T.);
#68=ADVANCED_FACE('',(#90,#91),#57,.F.);
#69=ADVANCED_FACE('',(#92,#93),#54,.T.);
#70=ADVANCED_FACE('',(#94,#95),#55,.T.);
#71=ADVANCED_FACE('',(#96,#97),#60,.T.);
#72=ADVANCED_FACE('',(#98,#99),#58,.F.);
#73=ADVANCED_FACE('',(#100,#101),#83,.T.);
#74=ADVANCED_FACE('',(#102,#103),#56,.T.);
#75=ADVANCED_FACE('',(#50),#61,.T.);
#76=ADVANCED_FACE('',(#51),#62,.T.);
#77=ADVANCED_FACE('',(#104,#105),#84,.T.);
#78=ADVANCED_FACE('',(#106,#107),#63,.T.);
#79=ADVANCED_FACE('',(#52),#64,.T.);
#80=ADVANCED_FACE('',(#108,#109),#85,.T.);
#81=ADVANCED_FACE('',(#53),#65,.T.);
#82=CYLINDRICAL_SURFACE('',#256,7.75);
#83=CYLINDRICAL_SURFACE('',#270,3.5);
#84=CYLINDRICAL_SURFACE('',#277,7.9375);
#85=CYLINDRICAL_SURFACE('',#282,7.9375);
#86=FACE_BOUND('',#110,.T.);
#87=FACE_BOUND('',#111,.T.);
#88=FACE_BOUND('',#112,.T.);
#89=FACE_BOUND('',#113,.T.);
#90=FACE_BOUND('',#114,.T.);
#91=FACE_BOUND('',#115,.T.);
#92=FACE_BOUND('',#116,.T.);
#93=FACE_BOUND('',#117,.T.);
#94=FACE_BOUND('',#118,.T.);
#95=FACE_BOUND('',#119,.T.);
#96=FACE_BOUND('',#120,.T.);
#97=FACE_BOUND('',#121,.T.);
#98=FACE_BOUND('',#122,.T.);
#99=FACE_BOUND('',#123,.T.);
#100=FACE_BOUND('',#124,.T.);
#101=FACE_BOUND('',#125,.T.);
#102=FACE_BOUND('',#126,.T.);
#103=FACE_BOUND('',#127,.T.);
#104=FACE_BOUND('',#130,.T.);
#105=FACE_BOUND('',#131,.T.);
#106=FACE_BOUND('',#132,.T.);
#107=FACE_BOUND('',#133,.T.);
#108=FACE_BOUND('',#135,.T.);
#109=FACE_BOUND('',#136,.T.);
#110=EDGE_LOOP('',(#138));
#111=EDGE_LOOP('',(#139));
#112=EDGE_LOOP('',(#140));
#113=EDGE_LOOP('',(#141));
#114=EDGE_LOOP('',(#142));
#115=EDGE_LOOP('',(#143));
#116=EDGE_LOOP('',(#144));
#117=EDGE_LOOP('',(#145));
#118=EDGE_LOOP('',(#146));
#119=EDGE_LOOP('',(#147));
#120=EDGE_LOOP('',(#148));
#121=EDGE_LOOP('',(#149));
#122=EDGE_LOOP('',(#150));
#123=EDGE_LOOP('',(#151));
#124=EDGE_LOOP('',(#152));
#125=EDGE_LOOP('',(#153));
#126=EDGE_LOOP('',(#154));
#127=EDGE_LOOP('',(#155));
#128=EDGE_LOOP('',(#156));
#129=EDGE_LOOP('',(#157));
#130=EDGE_LOOP('',(#158));
#131=EDGE_LOOP('',(#159));
#132=EDGE_LOOP('',(#160));
#133=EDGE_LOOP('',(#161));
#134=EDGE_LOOP('',(#162));
#135=EDGE_LOOP('',(#163));
#136=EDGE_LOOP('',(#164));
#137=EDGE_LOOP('',(#165));
#138=ORIENTED_EDGE('',*,*,#180,.T.);
#139=ORIENTED_EDGE('',*,*,#181,.F.);
#140=ORIENTED_EDGE('',*,*,#182,.T.);
#141=ORIENTED_EDGE('',*,*,#180,.F.);
#142=ORIENTED_EDGE('',*,*,#183,.T.);
#143=ORIENTED_EDGE('',*,*,#182,.F.);
#144=ORIENTED_EDGE('',*,*,#184,.T.);
#145=ORIENTED_EDGE('',*,*,#183,.F.);
#146=ORIENTED_EDGE('',*,*,#185,.T.);
#147=ORIENTED_EDGE('',*,*,#184,.F.);
#148=ORIENTED_EDGE('',*,*,#186,.T.);
#149=ORIENTED_EDGE('',*,*,#185,.F.);
#150=ORIENTED_EDGE('',*,*,#187,.T.);
#151=ORIENTED_EDGE('',*,*,#186,.F.);
#152=ORIENTED_EDGE('',*,*,#188,.T.);
#153=ORIENTED_EDGE('',*,*,#187,.F.);
#154=ORIENTED_EDGE('',*,*,#189,.T.);
#155=ORIENTED_EDGE('',*,*,#188,.F.);
#156=ORIENTED_EDGE('',*,*,#189,.F.);
#157=ORIENTED_EDGE('',*,*,#190,.T.);
#158=ORIENTED_EDGE('',*,*,#191,.T.);
#159=ORIENTED_EDGE('',*,*,#190,.F.);
#160=ORIENTED_EDGE('',*,*,#181,.T.);
#161=ORIENTED_EDGE('',*,*,#191,.F.);
#162=ORIENTED_EDGE('',*,*,#192,.T.);
#163=ORIENTED_EDGE('',*,*,#192,.F.);
#164=ORIENTED_EDGE('',*,*,#193,.T.);
#165=ORIENTED_EDGE('',*,*,#193,.F.);
#166=VERTEX_POINT('',#374);
#167=VERTEX_POINT('',#376);
#168=VERTEX_POINT('',#379);
#169=VERTEX_POINT('',#382);
#170=VERTEX_POINT('',#385);
#171=VERTEX_POINT('',#388);
#172=VERTEX_POINT('',#391);
#173=VERTEX_POINT('',#394);
#174=VERTEX_POINT('',#397);
#175=VERTEX_POINT('',#400);
#176=VERTEX_POINT('',#404);
#177=VERTEX_POINT('',#407);
#178=VERTEX_POINT('',#411);
#179=VERTEX_POINT('',#414);
#180=EDGE_CURVE('',#166,#166,#194,.T.);
#181=EDGE_CURVE('',#167,#167,#195,.T.);
#182=EDGE_CURVE('',#168,#168,#196,.T.);
#183=EDGE_CURVE('',#169,#169,#197,.T.);
#184=EDGE_CURVE('',#170,#170,#198,.T.);
#185=EDGE_CURVE('',#171,#171,#199,.T.);
#186=EDGE_CURVE('',#172,#172,#200,.T.);
#187=EDGE_CURVE('',#173,#173,#201,.T.);
#188=EDGE_CURVE('',#174,#174,#202,.T.);
#189=EDGE_CURVE('',#175,#175,#203,.T.);
#190=EDGE_CURVE('',#176,#176,#204,.T.);
#191=EDGE_CURVE('',#177,#177,#205,.T.);
#192=EDGE_CURVE('',#178,#178,#206,.T.);
#193=EDGE_CURVE('',#179,#179,#207,.T.);
#194=CIRCLE('',#254,7.75);
#195=CIRCLE('',#255,7.75);
#196=CIRCLE('',#257,6.12405278839403);
#197=CIRCLE('',#259,5.72434762182978);
#198=CIRCLE('',#261,5.63155903752234);
#199=CIRCLE('',#263,4.55949583781244);
#200=CIRCLE('',#265,4.);
#201=CIRCLE('',#267,3.5);
#202=CIRCLE('',#269,3.5);
#203=CIRCLE('',#271,3.);
#204=CIRCLE('',#274,7.9375);
#205=CIRCLE('',#276,7.9375);
#206=CIRCLE('',#279,7.9375);
#207=CIRCLE('',#281,7.9375);
#208=CURVE_STYLE('',#212,POSITIVE_LENGTH_MEASURE(0.18),#246);
#209=CURVE_STYLE('',#213,POSITIVE_LENGTH_MEASURE(0.18),#247);
#210=CURVE_STYLE('',#214,POSITIVE_LENGTH_MEASURE(0.18),#247);
#211=CURVE_STYLE('',#215,POSITIVE_LENGTH_MEASURE(0.18),#247);
#212=DRAUGHTING_PRE_DEFINED_CURVE_FONT('continuous');
#213=DRAUGHTING_PRE_DEFINED_CURVE_FONT('continuous');
#214=DRAUGHTING_PRE_DEFINED_CURVE_FONT('continuous');
#215=DRAUGHTING_PRE_DEFINED_CURVE_FONT('continuous');
#216=B_SPLINE_CURVE_WITH_KNOTS('CUTTING PART LINE',3,(#357,#358,#359,#360,
#361,#362,#363,#364,#365,#366,#367,#368,#369),.UNSPECIFIED.,.T.,.F.,(1,
3,3,3,3,3,1),(-0.375001968472937,0.,0.124998031527063,0.5,0.624998031527063,
1.,1.12499803152706),.UNSPECIFIED.);
#217=PRESENTATION_LAYER_ASSIGNMENT('1','Layer 1',(#353,#354,#355,#356,#216,
#251,#252,#253,#46,#47));
#218=STYLED_ITEM('',(#228),#353);
#219=STYLED_ITEM('',(#229),#354);
#220=STYLED_ITEM('',(#230),#355);
#221=STYLED_ITEM('',(#231),#356);
#222=STYLED_ITEM('',(#232),#216);
#223=STYLED_ITEM('',(#233),#251);
#224=STYLED_ITEM('',(#234),#252);
#225=STYLED_ITEM('',(#235),#253);
#226=STYLED_ITEM('',(#236),#46);
#227=STYLED_ITEM('',(#237),#47);
#228=PRESENTATION_STYLE_ASSIGNMENT((#238));
#229=PRESENTATION_STYLE_ASSIGNMENT((#239));
#230=PRESENTATION_STYLE_ASSIGNMENT((#240));
#231=PRESENTATION_STYLE_ASSIGNMENT((#241));
#232=PRESENTATION_STYLE_ASSIGNMENT((#208));
#233=PRESENTATION_STYLE_ASSIGNMENT((#209));
#234=PRESENTATION_STYLE_ASSIGNMENT((#210));
#235=PRESENTATION_STYLE_ASSIGNMENT((#211));
#236=PRESENTATION_STYLE_ASSIGNMENT((#36));
#237=PRESENTATION_STYLE_ASSIGNMENT((#37));
#238=POINT_STYLE('',#242,POSITIVE_LENGTH_MEASURE(3.),#246);
#239=POINT_STYLE('',#243,POSITIVE_LENGTH_MEASURE(3.),#247);
#240=POINT_STYLE('',#244,POSITIVE_LENGTH_MEASURE(3.),#247);
#241=POINT_STYLE('',#245,POSITIVE_LENGTH_MEASURE(3.),#247);
#242=PRE_DEFINED_POINT_MARKER_SYMBOL('plus');
#243=PRE_DEFINED_POINT_MARKER_SYMBOL('plus');
#244=PRE_DEFINED_POINT_MARKER_SYMBOL('plus');
#245=PRE_DEFINED_POINT_MARKER_SYMBOL('plus');
#246=COLOUR_RGB('Medium Royal',0.2,0.4,0.8);
#247=COLOUR_RGB('Pale Maroon',0.811749446860456,0.603921568627451,0.611749446860456);
#248=COLOUR_RGB('Medium Gray',0.490196078431373,0.490196078431373,0.490196078431373);
#249=COLOUR_RGB('Light Gray',0.8,0.8,0.8);
#250=AXIS2_PLACEMENT_3D('',#352,#284,#285);
#251=AXIS2_PLACEMENT_3D('MCS',#370,#286,#287);
#252=AXIS2_PLACEMENT_3D('PCS',#371,#288,#289);
#253=AXIS2_PLACEMENT_3D('CIP',#372,#290,#291);
#254=AXIS2_PLACEMENT_3D('',#373,#292,#293);
#255=AXIS2_PLACEMENT_3D('',#375,#294,#295);
#256=AXIS2_PLACEMENT_3D('',#377,#296,#297);
#257=AXIS2_PLACEMENT_3D('',#378,#298,#299);
#258=AXIS2_PLACEMENT_3D('',#380,#300,#301);
#259=AXIS2_PLACEMENT_3D('',#381,#302,#303);
#260=AXIS2_PLACEMENT_3D('',#383,#304,#305);
#261=AXIS2_PLACEMENT_3D('',#384,#306,#307);
#262=AXIS2_PLACEMENT_3D('',#386,#308,#309);
#263=AXIS2_PLACEMENT_3D('',#387,#310,#311);
#264=AXIS2_PLACEMENT_3D('',#389,#312,#313);
#265=AXIS2_PLACEMENT_3D('',#390,#314,#315);
#266=AXIS2_PLACEMENT_3D('',#392,#316,#317);
#267=AXIS2_PLACEMENT_3D('',#393,#318,#319);
#268=AXIS2_PLACEMENT_3D('',#395,#320,#321);
#269=AXIS2_PLACEMENT_3D('',#396,#322,#323);
#270=AXIS2_PLACEMENT_3D('',#398,#324,#325);
#271=AXIS2_PLACEMENT_3D('',#399,#326,#327);
#272=AXIS2_PLACEMENT_3D('',#401,#328,#329);
#273=AXIS2_PLACEMENT_3D('',#402,#330,#331);
#274=AXIS2_PLACEMENT_3D('',#403,#332,#333);
#275=AXIS2_PLACEMENT_3D('',#405,#334,#335);
#276=AXIS2_PLACEMENT_3D('',#406,#336,#337);
#277=AXIS2_PLACEMENT_3D('',#408,#338,#339);
#278=AXIS2_PLACEMENT_3D('',#409,#340,#341);
#279=AXIS2_PLACEMENT_3D('',#410,#342,#343);
#280=AXIS2_PLACEMENT_3D('',#412,#344,#345);
#281=AXIS2_PLACEMENT_3D('',#413,#346,#347);
#282=AXIS2_PLACEMENT_3D('',#415,#348,#349);
#283=AXIS2_PLACEMENT_3D('',#416,#350,#351);
#284=DIRECTION('',(0.,0.,1.));
#285=DIRECTION('',(1.,0.,0.));
#286=DIRECTION('',(0.,0.,1.));
#287=DIRECTION('',(1.,0.,0.));
#288=DIRECTION('',(0.,0.,1.));
#289=DIRECTION('',(1.,0.,0.));
#290=DIRECTION('',(0.,0.,1.));
#291=DIRECTION('',(1.,0.,0.));
#292=DIRECTION('',(0.,0.,-1.));
#293=DIRECTION('',(-1.,0.,0.));
#294=DIRECTION('',(0.,0.,-1.));
#295=DIRECTION('',(-1.,0.,0.));
#296=DIRECTION('',(0.,0.,-1.));
#297=DIRECTION('',(-1.,0.,0.));
#298=DIRECTION('',(0.,0.,-1.));
#299=DIRECTION('',(-1.,0.,0.));
#300=DIRECTION('',(0.,0.,1.));
#301=DIRECTION('',(1.,0.,0.));
#302=DIRECTION('',(0.,0.,-1.));
#303=DIRECTION('',(-1.,0.,0.));
#304=DIRECTION('',(0.,0.,-1.));
#305=DIRECTION('',(-1.,0.,0.));
#306=DIRECTION('',(0.,0.,-1.));
#307=DIRECTION('',(-1.,0.,0.));
#308=DIRECTION('',(0.,0.,-1.));
#309=DIRECTION('',(-1.,0.,5.58797810004668E-16));
#310=DIRECTION('',(0.,0.,-1.));
#311=DIRECTION('',(-1.,0.,0.));
#312=DIRECTION('',(0.,0.,-1.));
#313=DIRECTION('',(-1.,0.,2.23232331408449E-16));
#314=DIRECTION('',(0.,0.,-1.));
#315=DIRECTION('',(-1.,0.,0.));
#316=DIRECTION('',(0.,0.,1.));
#317=DIRECTION('',(1.,0.,0.));
#318=DIRECTION('',(0.,0.,-1.));
#319=DIRECTION('',(-1.,0.,0.));
#320=DIRECTION('',(0.,0.,-1.));
#321=DIRECTION('',(-1.,0.,0.));
#322=DIRECTION('',(0.,0.,-1.));
#323=DIRECTION('',(-1.,0.,0.));
#324=DIRECTION('',(0.,0.,-1.));
#325=DIRECTION('',(-1.,0.,0.));
#326=DIRECTION('',(0.,0.,-1.));
#327=DIRECTION('',(-1.,0.,0.));
#328=DIRECTION('',(0.,0.,-1.));
#329=DIRECTION('',(-1.,0.,-4.14881548813586E-17));
#330=DIRECTION('',(0.,0.,1.));
#331=DIRECTION('',(1.,0.,0.));
#332=DIRECTION('',(0.,0.,-1.));
#333=DIRECTION('',(-1.,0.,0.));
#334=DIRECTION('',(0.,0.,-1.));
#335=DIRECTION('',(-1.,0.,0.));
#336=DIRECTION('',(0.,0.,-1.));
#337=DIRECTION('',(1.,0.,0.));
#338=DIRECTION('',(0.,0.,-1.));
#339=DIRECTION('',(-1.,0.,0.));
#340=DIRECTION('',(0.,0.,1.));
#341=DIRECTION('',(1.,0.,0.));
#342=DIRECTION('',(0.,0.,-1.));
#343=DIRECTION('',(-1.,0.,0.));
#344=DIRECTION('',(0.,0.,-1.));
#345=DIRECTION('',(-1.,0.,0.));
#346=DIRECTION('',(0.,0.,-1.));
#347=DIRECTION('',(-1.,0.,0.));
#348=DIRECTION('',(0.,0.,-1.));
#349=DIRECTION('',(-1.,0.,0.));
#350=DIRECTION('',(0.,0.,1.));
#351=DIRECTION('',(1.,0.,0.));
#352=CARTESIAN_POINT('',(0.,0.,0.));
#353=CARTESIAN_POINT('CRP',(-7.9375,0.,-34.1));
#354=CARTESIAN_POINT('',(0.,0.,0.));
#355=CARTESIAN_POINT('',(0.,0.,0.));
#356=CARTESIAN_POINT('',(0.,0.,-34.1));
#357=CARTESIAN_POINT('',(-7.9375,0.,-34.1));
#358=CARTESIAN_POINT('',(-5.29166666666667,0.,-34.1));
#359=CARTESIAN_POINT('',(-2.64583333333333,0.,-34.1));
#360=CARTESIAN_POINT('',(0.,0.,-34.1));
#361=CARTESIAN_POINT('',(0.,0.,-26.1623333333333));
#362=CARTESIAN_POINT('',(0.,0.,-18.2246666666667));
#363=CARTESIAN_POINT('',(0.,0.,-10.287));
#364=CARTESIAN_POINT('',(-2.64583333333333,0.,-10.287));
#365=CARTESIAN_POINT('',(-5.29166666666667,0.,-10.287));
#366=CARTESIAN_POINT('',(-7.9375,0.,-10.287));
#367=CARTESIAN_POINT('',(-7.9375,0.,-18.2246666666667));
#368=CARTESIAN_POINT('',(-7.9375,0.,-26.1623333333333));
#369=CARTESIAN_POINT('',(-7.9375,0.,-34.1));
#370=CARTESIAN_POINT('',(0.,0.,0.));
#371=CARTESIAN_POINT('',(0.,0.,0.));
#372=CARTESIAN_POINT('',(0.,0.,-34.1));
#373=CARTESIAN_POINT('',(0.,0.,0.));
#374=CARTESIAN_POINT('',(-7.75,0.,0.));
#375=CARTESIAN_POINT('',(0.,0.,-9.6));
#376=CARTESIAN_POINT('',(-7.75,0.,-9.6));
#377=CARTESIAN_POINT('',(0.,0.,28.));
#378=CARTESIAN_POINT('',(0.,0.,0.));
#379=CARTESIAN_POINT('',(-6.12405278839403,0.,0.));
#380=CARTESIAN_POINT('',(7.75,0.,0.));
#381=CARTESIAN_POINT('',(0.,0.,0.384644876365001));
#382=CARTESIAN_POINT('',(-5.72434762182978,0.,0.384644876365001));
#383=CARTESIAN_POINT('',(0.,0.,0.399999999999998));
#384=CARTESIAN_POINT('',(0.,0.,2.8));
#385=CARTESIAN_POINT('',(-5.63155903752234,0.,2.8));
#386=CARTESIAN_POINT('',(0.,0.,0.384644876365001));
#387=CARTESIAN_POINT('',(0.,0.,13.));
#388=CARTESIAN_POINT('',(-4.55949583781244,0.,13.));
#389=CARTESIAN_POINT('',(0.,0.,2.8));
#390=CARTESIAN_POINT('',(0.,0.,13.));
#391=CARTESIAN_POINT('',(-4.,0.,13.));
#392=CARTESIAN_POINT('',(4.55949583781244,0.,13.));
#393=CARTESIAN_POINT('',(0.,0.,13.5));
#394=CARTESIAN_POINT('',(-3.5,0.,13.5));
#395=CARTESIAN_POINT('',(0.,0.,13.5));
#396=CARTESIAN_POINT('',(0.,0.,16.5));
#397=CARTESIAN_POINT('',(-3.5,0.,16.5));
#398=CARTESIAN_POINT('',(0.,0.,28.));
#399=CARTESIAN_POINT('',(0.,0.,17.));
#400=CARTESIAN_POINT('',(-3.,0.,17.));
#401=CARTESIAN_POINT('',(0.,0.,16.5));
#402=CARTESIAN_POINT('',(3.,0.,17.));
#403=CARTESIAN_POINT('',(0.,0.,-10.287));
#404=CARTESIAN_POINT('',(-7.9375,0.,-10.287));
#405=CARTESIAN_POINT('',(7.9375,0.,-10.287));
#406=CARTESIAN_POINT('',(0.,0.,-9.6));
#407=CARTESIAN_POINT('',(7.9375,0.,-9.6));
#408=CARTESIAN_POINT('',(0.,0.,28.));
#409=CARTESIAN_POINT('',(7.9875,0.,-9.6));
#410=CARTESIAN_POINT('',(0.,0.,-34.1));
#411=CARTESIAN_POINT('',(-7.9375,0.,-34.1));
#412=CARTESIAN_POINT('',(3.5527136788005E-15,0.,-34.1));
#413=CARTESIAN_POINT('',(0.,0.,-10.287));
#414=CARTESIAN_POINT('',(-7.9375,0.,-10.287));
#415=CARTESIAN_POINT('',(0.,0.,28.));
#416=CARTESIAN_POINT('',(0.,0.,-10.287));
#417=MECHANICAL_DESIGN_GEOMETRIC_PRESENTATION_REPRESENTATION('',(#218,#219,
#220,#221,#222,#223,#224,#225,#226,#227),#418);
#418=(
GEOMETRIC_REPRESENTATION_CONTEXT(3)
GLOBAL_UNCERTAINTY_ASSIGNED_CONTEXT((#419))
GLOBAL_UNIT_ASSIGNED_CONTEXT((#425,#421,#420))
REPRESENTATION_CONTEXT('XSE720E16','TOP_LEVEL_ASSEMBLY_PART')
);
#419=UNCERTAINTY_MEASURE_WITH_UNIT(LENGTH_MEASURE(2.E-5),#425,
'DISTANCE_ACCURACY_VALUE','Maximum Tolerance applied to model');
#420=(
NAMED_UNIT(*)
SI_UNIT($,.STERADIAN.)
SOLID_ANGLE_UNIT()
);
#421=(
CONVERSION_BASED_UNIT('DEGREE',#423)
NAMED_UNIT(#422)
PLANE_ANGLE_UNIT()
);
#422=DIMENSIONAL_EXPONENTS(0.,0.,0.,0.,0.,0.,0.);
#423=PLANE_ANGLE_MEASURE_WITH_UNIT(PLANE_ANGLE_MEASURE(0.0174532925),#424);
#424=(
NAMED_UNIT(*)
PLANE_ANGLE_UNIT()
SI_UNIT($,.RADIAN.)
);
#425=(
LENGTH_UNIT()
NAMED_UNIT(*)
SI_UNIT(.MILLI.,.METRE.)
);
ENDSEC;
END-ISO-10303-21;
