ISO-10303-21;
HEADER;
/* Generated by software containing ST-Developer
 * from STEP Tools, Inc. (www.steptools.com) 
 */
/* OPTION: using custom schema-name function */

FILE_DESCRIPTION(
/* description */ (''),
/* implementation_level */ '2;1');

FILE_NAME(
/* name */ 'XSE720E10.375D3SZ6_Basic.stp',
/* time_stamp */ '2023-03-20T13:05:19+06:00',
/* author */ (''),
/* organization */ (''),
/* preprocessor_version */ 'ST-DEVELOPER v16.7',
/* originating_system */ 'SIEMENS PLM Software NX 12.0',
/* authorisation */ '');

FILE_SCHEMA (('AUTOMOTIVE_DESIGN { 1 0 10303 214 3 1 1 1 }'));
ENDSEC;

DATA;
#10=CONSTRUCTIVE_GEOMETRY_REPRESENTATION_RELATIONSHIP(
'supplemental geometry','',#34,#11);
#11=CONSTRUCTIVE_GEOMETRY_REPRESENTATION('supplemental geometry',(#252,
#253,#254),#419);
#12=GEOMETRICALLY_BOUNDED_WIREFRAME_SHAPE_REPRESENTATION(
'inpu3010496Fsxdu-None',(#35),#419);
#13=PROPERTY_DEFINITION_REPRESENTATION(#17,#15);
#14=PROPERTY_DEFINITION_REPRESENTATION(#18,#16);
#15=REPRESENTATION('',(#19),#419);
#16=REPRESENTATION('',(#20),#419);
#17=PROPERTY_DEFINITION('pmi validation property','',#25);
#18=PROPERTY_DEFINITION('pmi validation property','',#25);
#19=VALUE_REPRESENTATION_ITEM('number of annotations',COUNT_MEASURE(0.));
#20=VALUE_REPRESENTATION_ITEM('number of views',COUNT_MEASURE(0.));
#21=SHAPE_REPRESENTATION_RELATIONSHIP('None',
'relationship between inpu3010496Fsxdu-None and inpu3010496Fsxdu-None',
#34,#23);
#22=SHAPE_REPRESENTATION_RELATIONSHIP('None',
'relationship between inpu3010496Fsxdu-None and inpu3010496Fsxdu-None',
#34,#12);
#23=ADVANCED_BREP_SHAPE_REPRESENTATION('inpu3010496Fsxdu-None',(#46,#47),
#419);
#24=SHAPE_DEFINITION_REPRESENTATION(#25,#34);
#25=PRODUCT_DEFINITION_SHAPE('','',#26);
#26=PRODUCT_DEFINITION(' ','',#28,#27);
#27=PRODUCT_DEFINITION_CONTEXT('part definition',#33,'design');
#28=PRODUCT_DEFINITION_FORMATION_WITH_SPECIFIED_SOURCE(' ',' ',#30,
 .NOT_KNOWN.);
#29=PRODUCT_RELATED_PRODUCT_CATEGORY('part','',(#30));
#30=PRODUCT('inpu3010496Fsxdu','inpu3010496Fsxdu',' ',(#31));
#31=PRODUCT_CONTEXT(' ',#33,'mechanical');
#32=APPLICATION_PROTOCOL_DEFINITION('international standard',
'automotive_design',2010,#33);
#33=APPLICATION_CONTEXT(
'core data for automotive mechanical design processes');
#34=SHAPE_REPRESENTATION('inpu3010496Fsxdu-None',(#251),#419);
#35=GEOMETRIC_CURVE_SET('None',(#354,#355,#356,#357,#217));
#36=SURFACE_STYLE_USAGE(.BOTH.,#38);
#37=SURFACE_STYLE_USAGE(.BOTH.,#39);
#38=SURFACE_SIDE_STYLE('',(#40));
#39=SURFACE_SIDE_STYLE('',(#41));
#40=SURFACE_STYLE_FILL_AREA(#42);
#41=SURFACE_STYLE_FILL_AREA(#43);
#42=FILL_AREA_STYLE('',(#44));
#43=FILL_AREA_STYLE('',(#45));
#44=FILL_AREA_STYLE_COLOUR('',#249);
#45=FILL_AREA_STYLE_COLOUR('',#250);
#46=MANIFOLD_SOLID_BREP('NOCUT',#48);
#47=MANIFOLD_SOLID_BREP('CUT',#49);
#48=CLOSED_SHELL('',(#66,#67,#68,#69,#70,#71,#72,#73,#74,#75,#76,#77,#78));
#49=CLOSED_SHELL('',(#79,#80,#81));
#50=FACE_OUTER_BOUND('',#128,.T.);
#51=FACE_OUTER_BOUND('',#129,.T.);
#52=FACE_OUTER_BOUND('',#134,.T.);
#53=FACE_OUTER_BOUND('',#137,.T.);
#54=CONICAL_SURFACE('',#263,3.61383370074948,2.20000000000001);
#55=CONICAL_SURFACE('',#265,3.5442422625189,6.00000000000001);
#56=CONICAL_SURFACE('',#273,2.2,45.);
#57=TOROIDAL_SURFACE('',#261,3.91361257567267,0.3);
#58=TOROIDAL_SURFACE('',#269,2.7,0.5);
#59=PLANE('',#259);
#60=PLANE('',#267);
#61=PLANE('',#274);
#62=PLANE('',#276);
#63=PLANE('',#279);
#64=PLANE('',#281);
#65=PLANE('',#284);
#66=ADVANCED_FACE('',(#86,#87),#82,.T.);
#67=ADVANCED_FACE('',(#88,#89),#59,.T.);
#68=ADVANCED_FACE('',(#90,#91),#57,.F.);
#69=ADVANCED_FACE('',(#92,#93),#54,.T.);
#70=ADVANCED_FACE('',(#94,#95),#55,.T.);
#71=ADVANCED_FACE('',(#96,#97),#60,.T.);
#72=ADVANCED_FACE('',(#98,#99),#58,.F.);
#73=ADVANCED_FACE('',(#100,#101),#83,.T.);
#74=ADVANCED_FACE('',(#102,#103),#56,.T.);
#75=ADVANCED_FACE('',(#50),#61,.T.);
#76=ADVANCED_FACE('',(#51),#62,.T.);
#77=ADVANCED_FACE('',(#104,#105),#84,.T.);
#78=ADVANCED_FACE('',(#106,#107),#63,.T.);
#79=ADVANCED_FACE('',(#52),#64,.T.);
#80=ADVANCED_FACE('',(#108,#109),#85,.T.);
#81=ADVANCED_FACE('',(#53),#65,.T.);
#82=CYLINDRICAL_SURFACE('',#257,4.625);
#83=CYLINDRICAL_SURFACE('',#271,2.2);
#84=CYLINDRICAL_SURFACE('',#278,4.7625);
#85=CYLINDRICAL_SURFACE('',#283,4.7625);
#86=FACE_BOUND('',#110,.T.);
#87=FACE_BOUND('',#111,.T.);
#88=FACE_BOUND('',#112,.T.);
#89=FACE_BOUND('',#113,.T.);
#90=FACE_BOUND('',#114,.T.);
#91=FACE_BOUND('',#115,.T.);
#92=FACE_BOUND('',#116,.T.);
#93=FACE_BOUND('',#117,.T.);
#94=FACE_BOUND('',#118,.T.);
#95=FACE_BOUND('',#119,.T.);
#96=FACE_BOUND('',#120,.T.);
#97=FACE_BOUND('',#121,.T.);
#98=FACE_BOUND('',#122,.T.);
#99=FACE_BOUND('',#123,.T.);
#100=FACE_BOUND('',#124,.T.);
#101=FACE_BOUND('',#125,.T.);
#102=FACE_BOUND('',#126,.T.);
#103=FACE_BOUND('',#127,.T.);
#104=FACE_BOUND('',#130,.T.);
#105=FACE_BOUND('',#131,.T.);
#106=FACE_BOUND('',#132,.T.);
#107=FACE_BOUND('',#133,.T.);
#108=FACE_BOUND('',#135,.T.);
#109=FACE_BOUND('',#136,.T.);
#110=EDGE_LOOP('',(#138));
#111=EDGE_LOOP('',(#139));
#112=EDGE_LOOP('',(#140));
#113=EDGE_LOOP('',(#141));
#114=EDGE_LOOP('',(#142));
#115=EDGE_LOOP('',(#143));
#116=EDGE_LOOP('',(#144));
#117=EDGE_LOOP('',(#145));
#118=EDGE_LOOP('',(#146));
#119=EDGE_LOOP('',(#147));
#120=EDGE_LOOP('',(#148));
#121=EDGE_LOOP('',(#149));
#122=EDGE_LOOP('',(#150));
#123=EDGE_LOOP('',(#151));
#124=EDGE_LOOP('',(#152));
#125=EDGE_LOOP('',(#153));
#126=EDGE_LOOP('',(#154));
#127=EDGE_LOOP('',(#155));
#128=EDGE_LOOP('',(#156));
#129=EDGE_LOOP('',(#157));
#130=EDGE_LOOP('',(#158));
#131=EDGE_LOOP('',(#159));
#132=EDGE_LOOP('',(#160));
#133=EDGE_LOOP('',(#161));
#134=EDGE_LOOP('',(#162));
#135=EDGE_LOOP('',(#163));
#136=EDGE_LOOP('',(#164));
#137=EDGE_LOOP('',(#165));
#138=ORIENTED_EDGE('',*,*,#180,.T.);
#139=ORIENTED_EDGE('',*,*,#181,.F.);
#140=ORIENTED_EDGE('',*,*,#182,.T.);
#141=ORIENTED_EDGE('',*,*,#180,.F.);
#142=ORIENTED_EDGE('',*,*,#183,.T.);
#143=ORIENTED_EDGE('',*,*,#182,.F.);
#144=ORIENTED_EDGE('',*,*,#184,.T.);
#145=ORIENTED_EDGE('',*,*,#183,.F.);
#146=ORIENTED_EDGE('',*,*,#185,.T.);
#147=ORIENTED_EDGE('',*,*,#184,.F.);
#148=ORIENTED_EDGE('',*,*,#186,.T.);
#149=ORIENTED_EDGE('',*,*,#185,.F.);
#150=ORIENTED_EDGE('',*,*,#187,.T.);
#151=ORIENTED_EDGE('',*,*,#186,.F.);
#152=ORIENTED_EDGE('',*,*,#188,.T.);
#153=ORIENTED_EDGE('',*,*,#187,.F.);
#154=ORIENTED_EDGE('',*,*,#189,.T.);
#155=ORIENTED_EDGE('',*,*,#188,.F.);
#156=ORIENTED_EDGE('',*,*,#189,.F.);
#157=ORIENTED_EDGE('',*,*,#190,.T.);
#158=ORIENTED_EDGE('',*,*,#191,.T.);
#159=ORIENTED_EDGE('',*,*,#190,.F.);
#160=ORIENTED_EDGE('',*,*,#181,.T.);
#161=ORIENTED_EDGE('',*,*,#191,.F.);
#162=ORIENTED_EDGE('',*,*,#192,.T.);
#163=ORIENTED_EDGE('',*,*,#193,.T.);
#164=ORIENTED_EDGE('',*,*,#192,.F.);
#165=ORIENTED_EDGE('',*,*,#193,.F.);
#166=VERTEX_POINT('',#375);
#167=VERTEX_POINT('',#377);
#168=VERTEX_POINT('',#380);
#169=VERTEX_POINT('',#383);
#170=VERTEX_POINT('',#386);
#171=VERTEX_POINT('',#389);
#172=VERTEX_POINT('',#392);
#173=VERTEX_POINT('',#395);
#174=VERTEX_POINT('',#398);
#175=VERTEX_POINT('',#401);
#176=VERTEX_POINT('',#405);
#177=VERTEX_POINT('',#408);
#178=VERTEX_POINT('',#412);
#179=VERTEX_POINT('',#415);
#180=EDGE_CURVE('',#166,#166,#194,.T.);
#181=EDGE_CURVE('',#167,#167,#195,.T.);
#182=EDGE_CURVE('',#168,#168,#196,.T.);
#183=EDGE_CURVE('',#169,#169,#197,.T.);
#184=EDGE_CURVE('',#170,#170,#198,.T.);
#185=EDGE_CURVE('',#171,#171,#199,.T.);
#186=EDGE_CURVE('',#172,#172,#200,.T.);
#187=EDGE_CURVE('',#173,#173,#201,.T.);
#188=EDGE_CURVE('',#174,#174,#202,.T.);
#189=EDGE_CURVE('',#175,#175,#203,.T.);
#190=EDGE_CURVE('',#176,#176,#204,.T.);
#191=EDGE_CURVE('',#177,#177,#205,.T.);
#192=EDGE_CURVE('',#178,#178,#206,.T.);
#193=EDGE_CURVE('',#179,#179,#207,.T.);
#194=CIRCLE('',#255,4.625);
#195=CIRCLE('',#256,4.625);
#196=CIRCLE('',#258,3.91361257567267);
#197=CIRCLE('',#260,3.61383370074948);
#198=CIRCLE('',#262,3.5442422625189);
#199=CIRCLE('',#264,2.95565854503112);
#200=CIRCLE('',#266,2.7);
#201=CIRCLE('',#268,2.2);
#202=CIRCLE('',#270,2.2);
#203=CIRCLE('',#272,1.7);
#204=CIRCLE('',#275,4.7625);
#205=CIRCLE('',#277,4.7625);
#206=CIRCLE('',#280,4.7625);
#207=CIRCLE('',#282,4.7625);
#208=CURVE_STYLE('',#213,POSITIVE_LENGTH_MEASURE(0.18),#212);
#209=CURVE_STYLE('',#214,POSITIVE_LENGTH_MEASURE(0.18),#248);
#210=CURVE_STYLE('',#215,POSITIVE_LENGTH_MEASURE(0.18),#248);
#211=CURVE_STYLE('',#216,POSITIVE_LENGTH_MEASURE(0.18),#248);
#212=DRAUGHTING_PRE_DEFINED_COLOUR('blue');
#213=DRAUGHTING_PRE_DEFINED_CURVE_FONT('continuous');
#214=DRAUGHTING_PRE_DEFINED_CURVE_FONT('continuous');
#215=DRAUGHTING_PRE_DEFINED_CURVE_FONT('continuous');
#216=DRAUGHTING_PRE_DEFINED_CURVE_FONT('continuous');
#217=B_SPLINE_CURVE_WITH_KNOTS('CUTTING PART LINE',3,(#358,#359,#360,#361,
#362,#363,#364,#365,#366,#367,#368,#369,#370),.UNSPECIFIED.,.T.,.F.,(1,
3,3,3,3,3,1),(-0.37500328075313,0.,0.12499671924687,0.5,0.62499671924687,
1.,1.12499671924687),.UNSPECIFIED.);
#218=PRESENTATION_LAYER_ASSIGNMENT('1','Layer 1',(#354,#355,#356,#357,#217,
#252,#253,#254,#46,#47));
#219=STYLED_ITEM('',(#229),#354);
#220=STYLED_ITEM('',(#230),#355);
#221=STYLED_ITEM('',(#231),#356);
#222=STYLED_ITEM('',(#232),#357);
#223=STYLED_ITEM('',(#233),#217);
#224=STYLED_ITEM('',(#234),#252);
#225=STYLED_ITEM('',(#235),#253);
#226=STYLED_ITEM('',(#236),#254);
#227=STYLED_ITEM('',(#237),#46);
#228=STYLED_ITEM('',(#238),#47);
#229=PRESENTATION_STYLE_ASSIGNMENT((#239));
#230=PRESENTATION_STYLE_ASSIGNMENT((#240));
#231=PRESENTATION_STYLE_ASSIGNMENT((#241));
#232=PRESENTATION_STYLE_ASSIGNMENT((#242));
#233=PRESENTATION_STYLE_ASSIGNMENT((#208));
#234=PRESENTATION_STYLE_ASSIGNMENT((#209));
#235=PRESENTATION_STYLE_ASSIGNMENT((#210));
#236=PRESENTATION_STYLE_ASSIGNMENT((#211));
#237=PRESENTATION_STYLE_ASSIGNMENT((#36));
#238=PRESENTATION_STYLE_ASSIGNMENT((#37));
#239=POINT_STYLE('',#243,POSITIVE_LENGTH_MEASURE(3.),#247);
#240=POINT_STYLE('',#244,POSITIVE_LENGTH_MEASURE(3.),#248);
#241=POINT_STYLE('',#245,POSITIVE_LENGTH_MEASURE(3.),#248);
#242=POINT_STYLE('',#246,POSITIVE_LENGTH_MEASURE(3.),#248);
#243=PRE_DEFINED_POINT_MARKER_SYMBOL('plus');
#244=PRE_DEFINED_POINT_MARKER_SYMBOL('plus');
#245=PRE_DEFINED_POINT_MARKER_SYMBOL('plus');
#246=PRE_DEFINED_POINT_MARKER_SYMBOL('plus');
#247=COLOUR_RGB('Medium Royal',0.2,0.4,0.8);
#248=COLOUR_RGB('Pale Maroon',0.811749446860456,0.603921568627451,0.611749446860456);
#249=COLOUR_RGB('Medium Gray',0.490196078431373,0.490196078431373,0.490196078431373);
#250=COLOUR_RGB('Light Gray',0.8,0.8,0.8);
#251=AXIS2_PLACEMENT_3D('',#353,#285,#286);
#252=AXIS2_PLACEMENT_3D('MCS',#371,#287,#288);
#253=AXIS2_PLACEMENT_3D('PCS',#372,#289,#290);
#254=AXIS2_PLACEMENT_3D('CIP',#373,#291,#292);
#255=AXIS2_PLACEMENT_3D('',#374,#293,#294);
#256=AXIS2_PLACEMENT_3D('',#376,#295,#296);
#257=AXIS2_PLACEMENT_3D('',#378,#297,#298);
#258=AXIS2_PLACEMENT_3D('',#379,#299,#300);
#259=AXIS2_PLACEMENT_3D('',#381,#301,#302);
#260=AXIS2_PLACEMENT_3D('',#382,#303,#304);
#261=AXIS2_PLACEMENT_3D('',#384,#305,#306);
#262=AXIS2_PLACEMENT_3D('',#385,#307,#308);
#263=AXIS2_PLACEMENT_3D('',#387,#309,#310);
#264=AXIS2_PLACEMENT_3D('',#388,#311,#312);
#265=AXIS2_PLACEMENT_3D('',#390,#313,#314);
#266=AXIS2_PLACEMENT_3D('',#391,#315,#316);
#267=AXIS2_PLACEMENT_3D('',#393,#317,#318);
#268=AXIS2_PLACEMENT_3D('',#394,#319,#320);
#269=AXIS2_PLACEMENT_3D('',#396,#321,#322);
#270=AXIS2_PLACEMENT_3D('',#397,#323,#324);
#271=AXIS2_PLACEMENT_3D('',#399,#325,#326);
#272=AXIS2_PLACEMENT_3D('',#400,#327,#328);
#273=AXIS2_PLACEMENT_3D('',#402,#329,#330);
#274=AXIS2_PLACEMENT_3D('',#403,#331,#332);
#275=AXIS2_PLACEMENT_3D('',#404,#333,#334);
#276=AXIS2_PLACEMENT_3D('',#406,#335,#336);
#277=AXIS2_PLACEMENT_3D('',#407,#337,#338);
#278=AXIS2_PLACEMENT_3D('',#409,#339,#340);
#279=AXIS2_PLACEMENT_3D('',#410,#341,#342);
#280=AXIS2_PLACEMENT_3D('',#411,#343,#344);
#281=AXIS2_PLACEMENT_3D('',#413,#345,#346);
#282=AXIS2_PLACEMENT_3D('',#414,#347,#348);
#283=AXIS2_PLACEMENT_3D('',#416,#349,#350);
#284=AXIS2_PLACEMENT_3D('',#417,#351,#352);
#285=DIRECTION('',(0.,0.,1.));
#286=DIRECTION('',(1.,0.,0.));
#287=DIRECTION('',(0.,0.,1.));
#288=DIRECTION('',(1.,0.,0.));
#289=DIRECTION('',(0.,0.,1.));
#290=DIRECTION('',(1.,0.,0.));
#291=DIRECTION('',(0.,0.,1.));
#292=DIRECTION('',(1.,0.,0.));
#293=DIRECTION('',(0.,0.,-1.));
#294=DIRECTION('',(-1.,0.,0.));
#295=DIRECTION('',(0.,0.,-1.));
#296=DIRECTION('',(-1.,0.,0.));
#297=DIRECTION('',(0.,0.,-1.));
#298=DIRECTION('',(-1.,0.,0.));
#299=DIRECTION('',(0.,0.,-1.));
#300=DIRECTION('',(-1.,0.,0.));
#301=DIRECTION('',(0.,0.,1.));
#302=DIRECTION('',(1.,0.,0.));
#303=DIRECTION('',(0.,0.,-1.));
#304=DIRECTION('',(-1.,0.,0.));
#305=DIRECTION('',(0.,0.,-1.));
#306=DIRECTION('',(-1.,0.,0.));
#307=DIRECTION('',(0.,0.,-1.));
#308=DIRECTION('',(-1.,0.,0.));
#309=DIRECTION('',(0.,0.,-1.));
#310=DIRECTION('',(-1.,0.,9.86694595866683E-16));
#311=DIRECTION('',(0.,0.,-1.));
#312=DIRECTION('',(-1.,0.,0.));
#313=DIRECTION('',(0.,0.,-1.));
#314=DIRECTION('',(-1.,0.,-8.78151202385367E-17));
#315=DIRECTION('',(0.,0.,-1.));
#316=DIRECTION('',(-1.,0.,0.));
#317=DIRECTION('',(0.,0.,1.));
#318=DIRECTION('',(1.,0.,0.));
#319=DIRECTION('',(0.,0.,-1.));
#320=DIRECTION('',(-1.,0.,0.));
#321=DIRECTION('',(0.,0.,-1.));
#322=DIRECTION('',(-1.,0.,0.));
#323=DIRECTION('',(0.,0.,-1.));
#324=DIRECTION('',(-1.,0.,0.));
#325=DIRECTION('',(0.,0.,-1.));
#326=DIRECTION('',(-1.,0.,0.));
#327=DIRECTION('',(0.,0.,-1.));
#328=DIRECTION('',(-1.,0.,0.));
#329=DIRECTION('',(0.,0.,-1.));
#330=DIRECTION('',(-1.,0.,4.32728865490123E-17));
#331=DIRECTION('',(0.,0.,1.));
#332=DIRECTION('',(1.,0.,0.));
#333=DIRECTION('',(0.,0.,-1.));
#334=DIRECTION('',(-1.,0.,0.));
#335=DIRECTION('',(0.,0.,-1.));
#336=DIRECTION('',(-1.,0.,0.));
#337=DIRECTION('',(0.,0.,-1.));
#338=DIRECTION('',(1.,0.,0.));
#339=DIRECTION('',(0.,0.,-1.));
#340=DIRECTION('',(-1.,0.,0.));
#341=DIRECTION('',(0.,0.,1.));
#342=DIRECTION('',(1.,0.,0.));
#343=DIRECTION('',(0.,0.,-1.));
#344=DIRECTION('',(-1.,0.,0.));
#345=DIRECTION('',(0.,0.,-1.));
#346=DIRECTION('',(-1.,0.,0.));
#347=DIRECTION('',(0.,0.,-1.));
#348=DIRECTION('',(-1.,0.,0.));
#349=DIRECTION('',(0.,0.,-1.));
#350=DIRECTION('',(-1.,0.,0.));
#351=DIRECTION('',(0.,0.,1.));
#352=DIRECTION('',(1.,0.,0.));
#353=CARTESIAN_POINT('',(0.,0.,0.));
#354=CARTESIAN_POINT('CRP',(-4.7625,0.,-21.));
#355=CARTESIAN_POINT('',(0.,0.,0.));
#356=CARTESIAN_POINT('',(0.,0.,0.));
#357=CARTESIAN_POINT('',(0.,0.,-21.));
#358=CARTESIAN_POINT('',(-4.7625,0.,-21.));
#359=CARTESIAN_POINT('',(-3.175,0.,-21.));
#360=CARTESIAN_POINT('',(-1.5875,0.,-21.));
#361=CARTESIAN_POINT('',(0.,0.,-21.));
#362=CARTESIAN_POINT('',(0.,0.,-16.2373333333333));
#363=CARTESIAN_POINT('',(0.,0.,-11.4746666666667));
#364=CARTESIAN_POINT('',(0.,0.,-6.712));
#365=CARTESIAN_POINT('',(-1.5875,0.,-6.712));
#366=CARTESIAN_POINT('',(-3.175,0.,-6.712));
#367=CARTESIAN_POINT('',(-4.7625,0.,-6.712));
#368=CARTESIAN_POINT('',(-4.7625,0.,-11.4746666666667));
#369=CARTESIAN_POINT('',(-4.7625,0.,-16.2373333333333));
#370=CARTESIAN_POINT('',(-4.7625,0.,-21.));
#371=CARTESIAN_POINT('',(0.,0.,0.));
#372=CARTESIAN_POINT('',(0.,0.,0.));
#373=CARTESIAN_POINT('',(0.,0.,-21.));
#374=CARTESIAN_POINT('',(0.,0.,0.));
#375=CARTESIAN_POINT('',(-4.625,0.,0.));
#376=CARTESIAN_POINT('',(0.,0.,-6.2));
#377=CARTESIAN_POINT('',(-4.625,0.,-6.2));
#378=CARTESIAN_POINT('',(0.,0.,24.));
#379=CARTESIAN_POINT('',(0.,0.,0.));
#380=CARTESIAN_POINT('',(-3.91361257567267,0.,0.));
#381=CARTESIAN_POINT('',(4.625,0.,0.));
#382=CARTESIAN_POINT('',(0.,0.,0.2884836572737));
#383=CARTESIAN_POINT('',(-3.61383370074948,0.,0.2884836572737));
#384=CARTESIAN_POINT('',(0.,0.,0.300000000000002));
#385=CARTESIAN_POINT('',(0.,0.,2.1));
#386=CARTESIAN_POINT('',(-3.5442422625189,0.,2.1));
#387=CARTESIAN_POINT('',(0.,0.,0.2884836572737));
#388=CARTESIAN_POINT('',(0.,0.,7.7));
#389=CARTESIAN_POINT('',(-2.95565854503112,0.,7.7));
#390=CARTESIAN_POINT('',(0.,0.,2.1));
#391=CARTESIAN_POINT('',(0.,0.,7.7));
#392=CARTESIAN_POINT('',(-2.7,0.,7.7));
#393=CARTESIAN_POINT('',(2.95565854503112,0.,7.7));
#394=CARTESIAN_POINT('',(0.,0.,8.2));
#395=CARTESIAN_POINT('',(-2.2,0.,8.2));
#396=CARTESIAN_POINT('',(0.,0.,8.2));
#397=CARTESIAN_POINT('',(0.,0.,10.7));
#398=CARTESIAN_POINT('',(-2.2,0.,10.7));
#399=CARTESIAN_POINT('',(0.,0.,24.));
#400=CARTESIAN_POINT('',(0.,0.,11.2));
#401=CARTESIAN_POINT('',(-1.7,0.,11.2));
#402=CARTESIAN_POINT('',(0.,0.,10.7));
#403=CARTESIAN_POINT('',(1.7,0.,11.2));
#404=CARTESIAN_POINT('',(0.,0.,-6.712));
#405=CARTESIAN_POINT('',(-4.7625,0.,-6.712));
#406=CARTESIAN_POINT('',(4.7625,0.,-6.712));
#407=CARTESIAN_POINT('',(0.,0.,-6.2));
#408=CARTESIAN_POINT('',(4.7625,0.,-6.2));
#409=CARTESIAN_POINT('',(0.,0.,24.));
#410=CARTESIAN_POINT('',(4.8125,0.,-6.2));
#411=CARTESIAN_POINT('',(0.,0.,-21.));
#412=CARTESIAN_POINT('',(-4.7625,0.,-21.));
#413=CARTESIAN_POINT('',(1.77635683940025E-15,0.,-21.));
#414=CARTESIAN_POINT('',(0.,0.,-6.712));
#415=CARTESIAN_POINT('',(-4.7625,0.,-6.712));
#416=CARTESIAN_POINT('',(0.,0.,24.));
#417=CARTESIAN_POINT('',(0.,0.,-6.712));
#418=MECHANICAL_DESIGN_GEOMETRIC_PRESENTATION_REPRESENTATION('',(#219,#220,
#221,#222,#223,#224,#225,#226,#227,#228),#419);
#419=(
GEOMETRIC_REPRESENTATION_CONTEXT(3)
GLOBAL_UNCERTAINTY_ASSIGNED_CONTEXT((#420))
GLOBAL_UNIT_ASSIGNED_CONTEXT((#426,#422,#421))
REPRESENTATION_CONTEXT('XSE720E10','TOP_LEVEL_ASSEMBLY_PART')
);
#420=UNCERTAINTY_MEASURE_WITH_UNIT(LENGTH_MEASURE(2.E-5),#426,
'DISTANCE_ACCURACY_VALUE','Maximum Tolerance applied to model');
#421=(
NAMED_UNIT(*)
SI_UNIT($,.STERADIAN.)
SOLID_ANGLE_UNIT()
);
#422=(
CONVERSION_BASED_UNIT('DEGREE',#424)
NAMED_UNIT(#423)
PLANE_ANGLE_UNIT()
);
#423=DIMENSIONAL_EXPONENTS(0.,0.,0.,0.,0.,0.,0.);
#424=PLANE_ANGLE_MEASURE_WITH_UNIT(PLANE_ANGLE_MEASURE(0.0174532925),#425);
#425=(
NAMED_UNIT(*)
PLANE_ANGLE_UNIT()
SI_UNIT($,.RADIAN.)
);
#426=(
LENGTH_UNIT()
NAMED_UNIT(*)
SI_UNIT(.MILLI.,.METRE.)
);
ENDSEC;
END-ISO-10303-21;
