ISO-10303-21;
HEADER;
/* Generated by software containing ST-Developer
 * from STEP Tools, Inc. (www.steptools.com) 
 */
/* OPTION: using custom schema-name function */

FILE_DESCRIPTION(
/* description */ (''),
/* implementation_level */ '2;1');

FILE_NAME(
/* name */ 'XSE720E12120D3R300Z6_Basic.stp',
/* time_stamp */ '2022-07-13T15:42:05+05:00',
/* author */ (''),
/* organization */ (''),
/* preprocessor_version */ 'ST-DEVELOPER v16.7',
/* originating_system */ 'SIEMENS PLM Software NX 12.0',
/* authorisation */ '');

FILE_SCHEMA (('AUTOMOTIVE_DESIGN { 1 0 10303 214 3 1 1 1 }'));
ENDSEC;

DATA;
#10=CONSTRUCTIVE_GEOMETRY_REPRESENTATION_RELATIONSHIP(
'supplemental geometry','',#34,#11);
#11=CONSTRUCTIVE_GEOMETRY_REPRESENTATION('supplemental geometry',(#264,
#265,#266),#467);
#12=GEOMETRICALLY_BOUNDED_WIREFRAME_SHAPE_REPRESENTATION(
'inpu43DC1522w1ki-None',(#35),#467);
#13=PROPERTY_DEFINITION_REPRESENTATION(#17,#15);
#14=PROPERTY_DEFINITION_REPRESENTATION(#18,#16);
#15=REPRESENTATION('',(#19),#467);
#16=REPRESENTATION('',(#20),#467);
#17=PROPERTY_DEFINITION('pmi validation property','',#25);
#18=PROPERTY_DEFINITION('pmi validation property','',#25);
#19=VALUE_REPRESENTATION_ITEM('number of annotations',COUNT_MEASURE(0.));
#20=VALUE_REPRESENTATION_ITEM('number of views',COUNT_MEASURE(0.));
#21=SHAPE_REPRESENTATION_RELATIONSHIP('None',
'relationship between inpu43DC1522w1ki-None and inpu43DC1522w1ki-None',
#34,#23);
#22=SHAPE_REPRESENTATION_RELATIONSHIP('None',
'relationship between inpu43DC1522w1ki-None and inpu43DC1522w1ki-None',
#34,#12);
#23=ADVANCED_BREP_SHAPE_REPRESENTATION('inpu43DC1522w1ki-None',(#47,#48),
#467);
#24=SHAPE_DEFINITION_REPRESENTATION(#25,#34);
#25=PRODUCT_DEFINITION_SHAPE('','',#26);
#26=PRODUCT_DEFINITION(' ','',#28,#27);
#27=PRODUCT_DEFINITION_CONTEXT('part definition',#33,'design');
#28=PRODUCT_DEFINITION_FORMATION_WITH_SPECIFIED_SOURCE(' ',' ',#30,
 .NOT_KNOWN.);
#29=PRODUCT_RELATED_PRODUCT_CATEGORY('part','',(#30));
#30=PRODUCT('inpu43DC1522w1ki','inpu43DC1522w1ki',' ',(#31));
#31=PRODUCT_CONTEXT(' ',#33,'mechanical');
#32=APPLICATION_PROTOCOL_DEFINITION('international standard',
'automotive_design',2010,#33);
#33=APPLICATION_CONTEXT(
'core data for automotive mechanical design processes');
#34=SHAPE_REPRESENTATION('inpu43DC1522w1ki-None',(#263),#467);
#35=GEOMETRIC_CURVE_SET('None',(#369,#370,#371,#372,#228));
#36=(
BOUNDED_SURFACE()
B_SPLINE_SURFACE(3,3,((#436,#437,#438,#439,#440,#441,#442),(#443,#444,#445,
#446,#447,#448,#449),(#450,#451,#452,#453,#454,#455,#456),(#457,#458,#459,
#460,#461,#462,#463)),.UNSPECIFIED.,.F.,.T.,.F.)
B_SPLINE_SURFACE_WITH_KNOTS((4,4),(1,3,3,3,1),(0.,1.),(-0.5,0.,0.5,1.,1.5),
 .UNSPECIFIED.)
GEOMETRIC_REPRESENTATION_ITEM()
RATIONAL_B_SPLINE_SURFACE(((1.,0.333333333333333,0.333333333333333,1.,0.333333333333333,
0.333333333333333,1.),(0.804737854124365,0.268245951374788,0.268245951374788,
0.804737854124365,0.268245951374788,0.268245951374788,0.804737854124365),
(0.804737854124365,0.268245951374788,0.268245951374788,0.804737854124365,
0.268245951374788,0.268245951374788,0.804737854124365),(1.,0.333333333333333,
0.333333333333333,1.,0.333333333333333,0.333333333333333,1.)))
REPRESENTATION_ITEM('')
SURFACE()
);
#37=SURFACE_STYLE_USAGE(.BOTH.,#39);
#38=SURFACE_STYLE_USAGE(.BOTH.,#40);
#39=SURFACE_SIDE_STYLE('',(#41));
#40=SURFACE_SIDE_STYLE('',(#42));
#41=SURFACE_STYLE_FILL_AREA(#43);
#42=SURFACE_STYLE_FILL_AREA(#44);
#43=FILL_AREA_STYLE('',(#45));
#44=FILL_AREA_STYLE('',(#46));
#45=FILL_AREA_STYLE_COLOUR('',#261);
#46=FILL_AREA_STYLE_COLOUR('',#262);
#47=MANIFOLD_SOLID_BREP('NOCUT',#49);
#48=MANIFOLD_SOLID_BREP('CUT',#50);
#49=CLOSED_SHELL('',(#68,#69,#70,#71,#72,#73,#74,#75,#76,#77,#78,#79,#80));
#50=CLOSED_SHELL('',(#81,#82,#83,#84));
#51=FACE_OUTER_BOUND('',#128,.T.);
#52=FACE_OUTER_BOUND('',#137,.T.);
#53=FACE_OUTER_BOUND('',#142,.T.);
#54=FACE_OUTER_BOUND('',#143,.T.);
#55=CYLINDRICAL_SURFACE('',#277,5.85);
#56=CYLINDRICAL_SURFACE('',#281,6.);
#57=CYLINDRICAL_SURFACE('',#287,2.75);
#58=CYLINDRICAL_SURFACE('',#294,6.);
#59=PLANE('',#275);
#60=PLANE('',#279);
#61=PLANE('',#283);
#62=PLANE('',#290);
#63=PLANE('',#291);
#64=PLANE('',#296);
#65=PLANE('',#297);
#66=TOROIDAL_SURFACE('',#273,4.90361257567267,0.300000000000001);
#67=TOROIDAL_SURFACE('',#289,3.25,0.5);
#68=ADVANCED_FACE('',(#88,#89),#85,.T.);
#69=ADVANCED_FACE('',(#90,#91),#86,.T.);
#70=ADVANCED_FACE('',(#92,#93),#66,.F.);
#71=ADVANCED_FACE('',(#94,#95),#59,.F.);
#72=ADVANCED_FACE('',(#96,#97),#55,.T.);
#73=ADVANCED_FACE('',(#98,#99),#60,.F.);
#74=ADVANCED_FACE('',(#100,#101),#56,.T.);
#75=ADVANCED_FACE('',(#51),#61,.F.);
#76=ADVANCED_FACE('',(#102,#103),#87,.T.);
#77=ADVANCED_FACE('',(#104,#105),#57,.T.);
#78=ADVANCED_FACE('',(#106,#107),#67,.F.);
#79=ADVANCED_FACE('',(#108,#109),#62,.F.);
#80=ADVANCED_FACE('',(#52),#63,.F.);
#81=ADVANCED_FACE('',(#110,#111),#58,.T.);
#82=ADVANCED_FACE('',(#112,#113),#36,.T.);
#83=ADVANCED_FACE('',(#53),#64,.F.);
#84=ADVANCED_FACE('',(#54),#65,.T.);
#85=CONICAL_SURFACE('',#269,3.75161489508634,6.00000000000001);
#86=CONICAL_SURFACE('',#271,4.51887581252578,2.20000000000003);
#87=CONICAL_SURFACE('',#285,2.25,45.);
#88=FACE_BOUND('',#114,.T.);
#89=FACE_BOUND('',#115,.T.);
#90=FACE_BOUND('',#116,.T.);
#91=FACE_BOUND('',#117,.T.);
#92=FACE_BOUND('',#118,.T.);
#93=FACE_BOUND('',#119,.T.);
#94=FACE_BOUND('',#120,.T.);
#95=FACE_BOUND('',#121,.T.);
#96=FACE_BOUND('',#122,.T.);
#97=FACE_BOUND('',#123,.T.);
#98=FACE_BOUND('',#124,.T.);
#99=FACE_BOUND('',#125,.T.);
#100=FACE_BOUND('',#126,.T.);
#101=FACE_BOUND('',#127,.T.);
#102=FACE_BOUND('',#129,.T.);
#103=FACE_BOUND('',#130,.T.);
#104=FACE_BOUND('',#131,.T.);
#105=FACE_BOUND('',#132,.T.);
#106=FACE_BOUND('',#133,.T.);
#107=FACE_BOUND('',#134,.T.);
#108=FACE_BOUND('',#135,.T.);
#109=FACE_BOUND('',#136,.T.);
#110=FACE_BOUND('',#138,.T.);
#111=FACE_BOUND('',#139,.T.);
#112=FACE_BOUND('',#140,.T.);
#113=FACE_BOUND('',#141,.T.);
#114=EDGE_LOOP('',(#144));
#115=EDGE_LOOP('',(#145));
#116=EDGE_LOOP('',(#146));
#117=EDGE_LOOP('',(#147));
#118=EDGE_LOOP('',(#148));
#119=EDGE_LOOP('',(#149));
#120=EDGE_LOOP('',(#150));
#121=EDGE_LOOP('',(#151));
#122=EDGE_LOOP('',(#152));
#123=EDGE_LOOP('',(#153));
#124=EDGE_LOOP('',(#154));
#125=EDGE_LOOP('',(#155));
#126=EDGE_LOOP('',(#156));
#127=EDGE_LOOP('',(#157));
#128=EDGE_LOOP('',(#158));
#129=EDGE_LOOP('',(#159));
#130=EDGE_LOOP('',(#160));
#131=EDGE_LOOP('',(#161));
#132=EDGE_LOOP('',(#162));
#133=EDGE_LOOP('',(#163));
#134=EDGE_LOOP('',(#164));
#135=EDGE_LOOP('',(#165));
#136=EDGE_LOOP('',(#166));
#137=EDGE_LOOP('',(#167));
#138=EDGE_LOOP('',(#168));
#139=EDGE_LOOP('',(#169));
#140=EDGE_LOOP('',(#170));
#141=EDGE_LOOP('',(#171));
#142=EDGE_LOOP('',(#172));
#143=EDGE_LOOP('',(#173));
#144=ORIENTED_EDGE('',*,*,#189,.F.);
#145=ORIENTED_EDGE('',*,*,#190,.T.);
#146=ORIENTED_EDGE('',*,*,#191,.F.);
#147=ORIENTED_EDGE('',*,*,#189,.T.);
#148=ORIENTED_EDGE('',*,*,#192,.F.);
#149=ORIENTED_EDGE('',*,*,#191,.T.);
#150=ORIENTED_EDGE('',*,*,#193,.F.);
#151=ORIENTED_EDGE('',*,*,#192,.T.);
#152=ORIENTED_EDGE('',*,*,#194,.F.);
#153=ORIENTED_EDGE('',*,*,#193,.T.);
#154=ORIENTED_EDGE('',*,*,#195,.F.);
#155=ORIENTED_EDGE('',*,*,#194,.T.);
#156=ORIENTED_EDGE('',*,*,#196,.T.);
#157=ORIENTED_EDGE('',*,*,#195,.T.);
#158=ORIENTED_EDGE('',*,*,#197,.F.);
#159=ORIENTED_EDGE('',*,*,#198,.F.);
#160=ORIENTED_EDGE('',*,*,#197,.T.);
#161=ORIENTED_EDGE('',*,*,#199,.F.);
#162=ORIENTED_EDGE('',*,*,#198,.T.);
#163=ORIENTED_EDGE('',*,*,#200,.F.);
#164=ORIENTED_EDGE('',*,*,#199,.T.);
#165=ORIENTED_EDGE('',*,*,#190,.F.);
#166=ORIENTED_EDGE('',*,*,#200,.T.);
#167=ORIENTED_EDGE('',*,*,#196,.F.);
#168=ORIENTED_EDGE('',*,*,#201,.F.);
#169=ORIENTED_EDGE('',*,*,#202,.F.);
#170=ORIENTED_EDGE('',*,*,#203,.F.);
#171=ORIENTED_EDGE('',*,*,#201,.T.);
#172=ORIENTED_EDGE('',*,*,#203,.T.);
#173=ORIENTED_EDGE('',*,*,#202,.T.);
#174=VERTEX_POINT('',#393);
#175=VERTEX_POINT('',#395);
#176=VERTEX_POINT('',#398);
#177=VERTEX_POINT('',#401);
#178=VERTEX_POINT('',#404);
#179=VERTEX_POINT('',#407);
#180=VERTEX_POINT('',#410);
#181=VERTEX_POINT('',#413);
#182=VERTEX_POINT('',#416);
#183=VERTEX_POINT('',#419);
#184=VERTEX_POINT('',#422);
#185=VERTEX_POINT('',#425);
#186=VERTEX_POINT('',#430);
#187=VERTEX_POINT('',#432);
#188=VERTEX_POINT('',#435);
#189=EDGE_CURVE('',#174,#174,#204,.T.);
#190=EDGE_CURVE('',#175,#175,#205,.T.);
#191=EDGE_CURVE('',#176,#176,#206,.T.);
#192=EDGE_CURVE('',#177,#177,#207,.T.);
#193=EDGE_CURVE('',#178,#178,#208,.T.);
#194=EDGE_CURVE('',#179,#179,#209,.T.);
#195=EDGE_CURVE('',#180,#180,#210,.T.);
#196=EDGE_CURVE('',#181,#181,#211,.T.);
#197=EDGE_CURVE('',#182,#182,#212,.T.);
#198=EDGE_CURVE('',#183,#183,#213,.T.);
#199=EDGE_CURVE('',#184,#184,#214,.T.);
#200=EDGE_CURVE('',#185,#185,#215,.T.);
#201=EDGE_CURVE('',#186,#186,#216,.T.);
#202=EDGE_CURVE('',#187,#187,#217,.T.);
#203=EDGE_CURVE('',#188,#188,#218,.T.);
#204=CIRCLE('',#267,4.51887581252578);
#205=CIRCLE('',#268,3.75161489508634);
#206=CIRCLE('',#270,4.60383370074948);
#207=CIRCLE('',#272,4.90361257567267);
#208=CIRCLE('',#274,5.85);
#209=CIRCLE('',#276,5.85);
#210=CIRCLE('',#278,6.);
#211=CIRCLE('',#280,6.);
#212=CIRCLE('',#282,2.25);
#213=CIRCLE('',#284,2.75);
#214=CIRCLE('',#286,2.75);
#215=CIRCLE('',#288,3.25);
#216=CIRCLE('',#292,6.);
#217=CIRCLE('',#293,6.);
#218=CIRCLE('',#295,3.);
#219=CURVE_STYLE('',#224,POSITIVE_LENGTH_MEASURE(0.18),#223);
#220=CURVE_STYLE('',#225,POSITIVE_LENGTH_MEASURE(0.18),#259);
#221=CURVE_STYLE('',#226,POSITIVE_LENGTH_MEASURE(0.18),#259);
#222=CURVE_STYLE('',#227,POSITIVE_LENGTH_MEASURE(0.18),#259);
#223=DRAUGHTING_PRE_DEFINED_COLOUR('blue');
#224=DRAUGHTING_PRE_DEFINED_CURVE_FONT('continuous');
#225=DRAUGHTING_PRE_DEFINED_CURVE_FONT('continuous');
#226=DRAUGHTING_PRE_DEFINED_CURVE_FONT('continuous');
#227=DRAUGHTING_PRE_DEFINED_CURVE_FONT('continuous');
#228=TRIMMED_CURVE('CUTTING PART LINE',#229,(PARAMETER_VALUE(0.)),(
PARAMETER_VALUE(1.)),.T.,.PARAMETER.);
#229=(
BOUNDED_CURVE()
B_SPLINE_CURVE(3,(#373,#374,#375,#376,#377,#378,#379,#380,#381,#382,#383,
#384,#385,#386,#387,#388),.UNSPECIFIED.,.T.,.F.)
B_SPLINE_CURVE_WITH_KNOTS((4,3,3,3,3,4),(0.,0.128445582230207,0.449559537808935,
0.550440462188924,0.614663253302957,1.),.UNSPECIFIED.)
CURVE()
GEOMETRIC_REPRESENTATION_ITEM()
RATIONAL_B_SPLINE_CURVE((1.,1.,1.,1.,1.,1.,1.,0.804737854124365,0.804737854124365,
1.,1.,1.,1.,1.,1.,1.))
REPRESENTATION_ITEM('CUTTING PART LINE')
);
#230=PRESENTATION_LAYER_ASSIGNMENT('1','Layer 1',(#369,#370,#371,#372,#228,
#264,#265,#266,#47,#48));
#231=STYLED_ITEM('',(#241),#369);
#232=STYLED_ITEM('',(#242),#370);
#233=STYLED_ITEM('',(#243),#371);
#234=STYLED_ITEM('',(#244),#372);
#235=STYLED_ITEM('',(#245),#228);
#236=STYLED_ITEM('',(#246),#264);
#237=STYLED_ITEM('',(#247),#265);
#238=STYLED_ITEM('',(#248),#266);
#239=STYLED_ITEM('',(#249),#47);
#240=STYLED_ITEM('',(#250),#48);
#241=PRESENTATION_STYLE_ASSIGNMENT((#251));
#242=PRESENTATION_STYLE_ASSIGNMENT((#252));
#243=PRESENTATION_STYLE_ASSIGNMENT((#253));
#244=PRESENTATION_STYLE_ASSIGNMENT((#254));
#245=PRESENTATION_STYLE_ASSIGNMENT((#219));
#246=PRESENTATION_STYLE_ASSIGNMENT((#220));
#247=PRESENTATION_STYLE_ASSIGNMENT((#221));
#248=PRESENTATION_STYLE_ASSIGNMENT((#222));
#249=PRESENTATION_STYLE_ASSIGNMENT((#37));
#250=PRESENTATION_STYLE_ASSIGNMENT((#38));
#251=POINT_STYLE('',#255,POSITIVE_LENGTH_MEASURE(3.),#259);
#252=POINT_STYLE('',#256,POSITIVE_LENGTH_MEASURE(3.),#259);
#253=POINT_STYLE('',#257,POSITIVE_LENGTH_MEASURE(3.),#259);
#254=POINT_STYLE('',#258,POSITIVE_LENGTH_MEASURE(3.),#260);
#255=PRE_DEFINED_POINT_MARKER_SYMBOL('plus');
#256=PRE_DEFINED_POINT_MARKER_SYMBOL('plus');
#257=PRE_DEFINED_POINT_MARKER_SYMBOL('plus');
#258=PRE_DEFINED_POINT_MARKER_SYMBOL('plus');
#259=COLOUR_RGB('Pale Maroon',0.811749446860456,0.603921568627451,0.611749446860456);
#260=COLOUR_RGB('Medium Royal',0.2,0.4,0.8);
#261=COLOUR_RGB('Medium Gray',0.490196078431373,0.490196078431373,0.490196078431373);
#262=COLOUR_RGB('Light Gray',0.8,0.8,0.8);
#263=AXIS2_PLACEMENT_3D('',#368,#298,#299);
#264=AXIS2_PLACEMENT_3D('MCS',#389,#300,#301);
#265=AXIS2_PLACEMENT_3D('PCS',#390,#302,#303);
#266=AXIS2_PLACEMENT_3D('CIP',#391,#304,#305);
#267=AXIS2_PLACEMENT_3D('',#392,#306,#307);
#268=AXIS2_PLACEMENT_3D('',#394,#308,#309);
#269=AXIS2_PLACEMENT_3D('',#396,#310,#311);
#270=AXIS2_PLACEMENT_3D('',#397,#312,#313);
#271=AXIS2_PLACEMENT_3D('',#399,#314,#315);
#272=AXIS2_PLACEMENT_3D('',#400,#316,#317);
#273=AXIS2_PLACEMENT_3D('',#402,#318,#319);
#274=AXIS2_PLACEMENT_3D('',#403,#320,#321);
#275=AXIS2_PLACEMENT_3D('',#405,#322,#323);
#276=AXIS2_PLACEMENT_3D('',#406,#324,#325);
#277=AXIS2_PLACEMENT_3D('',#408,#326,#327);
#278=AXIS2_PLACEMENT_3D('',#409,#328,#329);
#279=AXIS2_PLACEMENT_3D('',#411,#330,#331);
#280=AXIS2_PLACEMENT_3D('',#412,#332,#333);
#281=AXIS2_PLACEMENT_3D('',#414,#334,#335);
#282=AXIS2_PLACEMENT_3D('',#415,#336,#337);
#283=AXIS2_PLACEMENT_3D('',#417,#338,#339);
#284=AXIS2_PLACEMENT_3D('',#418,#340,#341);
#285=AXIS2_PLACEMENT_3D('',#420,#342,#343);
#286=AXIS2_PLACEMENT_3D('',#421,#344,#345);
#287=AXIS2_PLACEMENT_3D('',#423,#346,#347);
#288=AXIS2_PLACEMENT_3D('',#424,#348,#349);
#289=AXIS2_PLACEMENT_3D('',#426,#350,#351);
#290=AXIS2_PLACEMENT_3D('',#427,#352,#353);
#291=AXIS2_PLACEMENT_3D('',#428,#354,#355);
#292=AXIS2_PLACEMENT_3D('',#429,#356,#357);
#293=AXIS2_PLACEMENT_3D('',#431,#358,#359);
#294=AXIS2_PLACEMENT_3D('',#433,#360,#361);
#295=AXIS2_PLACEMENT_3D('',#434,#362,#363);
#296=AXIS2_PLACEMENT_3D('',#464,#364,#365);
#297=AXIS2_PLACEMENT_3D('',#465,#366,#367);
#298=DIRECTION('',(0.,0.,1.));
#299=DIRECTION('',(1.,0.,0.));
#300=DIRECTION('',(0.,0.,1.));
#301=DIRECTION('',(1.,0.,0.));
#302=DIRECTION('',(0.,0.,1.));
#303=DIRECTION('',(1.,0.,0.));
#304=DIRECTION('',(0.,0.,1.));
#305=DIRECTION('',(1.,0.,0.));
#306=DIRECTION('',(0.,0.,-1.));
#307=DIRECTION('',(-1.,0.,0.));
#308=DIRECTION('',(0.,0.,-1.));
#309=DIRECTION('',(-1.,0.,0.));
#310=DIRECTION('',(0.,0.,-1.));
#311=DIRECTION('',(1.,0.,2.70911476489809E-16));
#312=DIRECTION('',(0.,0.,-1.));
#313=DIRECTION('',(-1.,0.,0.));
#314=DIRECTION('',(0.,0.,-1.));
#315=DIRECTION('',(1.,0.,-1.21210442099152E-15));
#316=DIRECTION('',(0.,0.,-1.));
#317=DIRECTION('',(-1.,0.,0.));
#318=DIRECTION('',(0.,0.,-1.));
#319=DIRECTION('',(1.,0.,0.));
#320=DIRECTION('',(0.,0.,-1.));
#321=DIRECTION('',(-1.,0.,0.));
#322=DIRECTION('',(0.,0.,-1.));
#323=DIRECTION('',(1.,0.,0.));
#324=DIRECTION('',(0.,0.,-1.));
#325=DIRECTION('',(-1.,0.,0.));
#326=DIRECTION('',(0.,0.,-1.));
#327=DIRECTION('',(1.,0.,0.));
#328=DIRECTION('',(0.,0.,-1.));
#329=DIRECTION('',(-1.,0.,0.));
#330=DIRECTION('',(0.,0.,-1.));
#331=DIRECTION('',(1.,0.,0.));
#332=DIRECTION('',(0.,0.,1.));
#333=DIRECTION('',(1.,0.,0.));
#334=DIRECTION('',(0.,0.,-1.));
#335=DIRECTION('',(1.,0.,0.));
#336=DIRECTION('',(0.,0.,-1.));
#337=DIRECTION('',(-1.,0.,0.));
#338=DIRECTION('',(0.,0.,-1.));
#339=DIRECTION('',(1.,0.,0.));
#340=DIRECTION('',(0.,0.,-1.));
#341=DIRECTION('',(-1.,0.,0.));
#342=DIRECTION('',(0.,0.,-1.));
#343=DIRECTION('',(1.,0.,3.28857530990864E-17));
#344=DIRECTION('',(0.,0.,-1.));
#345=DIRECTION('',(-1.,0.,0.));
#346=DIRECTION('',(0.,0.,-1.));
#347=DIRECTION('',(1.,0.,0.));
#348=DIRECTION('',(0.,0.,-1.));
#349=DIRECTION('',(-1.,0.,0.));
#350=DIRECTION('',(0.,0.,-1.));
#351=DIRECTION('',(1.,0.,0.));
#352=DIRECTION('',(0.,0.,-1.));
#353=DIRECTION('',(1.,0.,0.));
#354=DIRECTION('',(0.,0.,1.));
#355=DIRECTION('',(-1.,0.,0.));
#356=DIRECTION('',(0.,0.,-1.));
#357=DIRECTION('',(-1.,0.,0.));
#358=DIRECTION('',(0.,0.,1.));
#359=DIRECTION('',(1.,0.,0.));
#360=DIRECTION('',(0.,0.,-1.));
#361=DIRECTION('',(1.,0.,0.));
#362=DIRECTION('',(0.,0.,-1.));
#363=DIRECTION('',(-1.,0.,0.));
#364=DIRECTION('',(0.,0.,1.));
#365=DIRECTION('',(-1.,0.,0.));
#366=DIRECTION('',(0.,0.,1.));
#367=DIRECTION('',(-1.,0.,0.));
#368=CARTESIAN_POINT('',(0.,0.,0.));
#369=CARTESIAN_POINT('',(0.,0.,0.));
#370=CARTESIAN_POINT('',(0.,0.,0.));
#371=CARTESIAN_POINT('',(0.,0.,-25.9));
#372=CARTESIAN_POINT('CRP',(-6.,0.,-25.9));
#373=CARTESIAN_POINT('',(0.,0.,-7.9));
#374=CARTESIAN_POINT('',(-2.,0.,-7.9));
#375=CARTESIAN_POINT('',(-4.,0.,-7.9));
#376=CARTESIAN_POINT('',(-6.,0.,-7.9));
#377=CARTESIAN_POINT('',(-6.,0.,-12.9));
#378=CARTESIAN_POINT('',(-6.,0.,-17.9));
#379=CARTESIAN_POINT('',(-6.,0.,-22.9));
#380=CARTESIAN_POINT('',(-6.,0.,-24.6573593128807));
#381=CARTESIAN_POINT('',(-4.75735931288072,0.,-25.9));
#382=CARTESIAN_POINT('',(-3.,0.,-25.9));
#383=CARTESIAN_POINT('',(-2.,0.,-25.9));
#384=CARTESIAN_POINT('',(-1.,0.,-25.9));
#385=CARTESIAN_POINT('',(0.,0.,-25.9));
#386=CARTESIAN_POINT('',(0.,0.,-19.9));
#387=CARTESIAN_POINT('',(0.,0.,-13.9));
#388=CARTESIAN_POINT('',(0.,0.,-7.9));
#389=CARTESIAN_POINT('',(0.,0.,0.));
#390=CARTESIAN_POINT('',(0.,0.,0.));
#391=CARTESIAN_POINT('',(0.,0.,-25.9));
#392=CARTESIAN_POINT('',(0.,0.,2.5));
#393=CARTESIAN_POINT('',(-4.51887581252578,0.,2.5));
#394=CARTESIAN_POINT('',(0.,0.,9.8));
#395=CARTESIAN_POINT('',(-3.75161489508634,0.,9.8));
#396=CARTESIAN_POINT('',(0.,0.,9.8));
#397=CARTESIAN_POINT('',(0.,0.,0.2884836572737));
#398=CARTESIAN_POINT('',(-4.60383370074948,0.,0.2884836572737));
#399=CARTESIAN_POINT('',(0.,0.,2.5));
#400=CARTESIAN_POINT('',(0.,0.,0.));
#401=CARTESIAN_POINT('',(-4.90361257567267,0.,0.));
#402=CARTESIAN_POINT('',(0.,0.,0.300000000000002));
#403=CARTESIAN_POINT('',(0.,0.,0.));
#404=CARTESIAN_POINT('',(-5.85,0.,0.));
#405=CARTESIAN_POINT('',(4.90361257567267,0.,0.));
#406=CARTESIAN_POINT('',(0.,0.,-7.4));
#407=CARTESIAN_POINT('',(-5.85,0.,-7.4));
#408=CARTESIAN_POINT('',(0.,0.,24.));
#409=CARTESIAN_POINT('',(0.,0.,-7.4));
#410=CARTESIAN_POINT('',(-6.,0.,-7.4));
#411=CARTESIAN_POINT('',(5.85,0.,-7.4));
#412=CARTESIAN_POINT('',(0.,0.,-7.9));
#413=CARTESIAN_POINT('',(6.,0.,-7.9));
#414=CARTESIAN_POINT('',(0.,0.,24.));
#415=CARTESIAN_POINT('',(0.,0.,13.8));
#416=CARTESIAN_POINT('',(-2.25,0.,13.8));
#417=CARTESIAN_POINT('',(-2.1094237467878E-15,0.,13.8));
#418=CARTESIAN_POINT('',(0.,0.,13.3));
#419=CARTESIAN_POINT('',(-2.75,0.,13.3));
#420=CARTESIAN_POINT('',(0.,0.,13.8));
#421=CARTESIAN_POINT('',(0.,0.,10.3));
#422=CARTESIAN_POINT('',(-2.75,0.,10.3));
#423=CARTESIAN_POINT('',(0.,0.,24.));
#424=CARTESIAN_POINT('',(0.,0.,9.8));
#425=CARTESIAN_POINT('',(-3.25,0.,9.8));
#426=CARTESIAN_POINT('',(0.,0.,10.3));
#427=CARTESIAN_POINT('',(3.25,0.,9.8));
#428=CARTESIAN_POINT('',(0.,0.,-7.9));
#429=CARTESIAN_POINT('',(0.,0.,-22.9));
#430=CARTESIAN_POINT('',(-6.,0.,-22.9));
#431=CARTESIAN_POINT('',(0.,0.,-7.9));
#432=CARTESIAN_POINT('',(6.,0.,-7.9));
#433=CARTESIAN_POINT('',(0.,0.,24.));
#434=CARTESIAN_POINT('',(0.,0.,-25.9));
#435=CARTESIAN_POINT('',(-3.,0.,-25.9));
#436=CARTESIAN_POINT('',(3.,0.,-25.9));
#437=CARTESIAN_POINT('',(3.,-6.,-25.9));
#438=CARTESIAN_POINT('',(-3.,-6.,-25.9));
#439=CARTESIAN_POINT('',(-3.,0.,-25.9));
#440=CARTESIAN_POINT('',(-3.,6.,-25.9));
#441=CARTESIAN_POINT('',(3.,6.,-25.9));
#442=CARTESIAN_POINT('',(3.,0.,-25.9));
#443=CARTESIAN_POINT('',(4.75735931288072,0.,-25.9));
#444=CARTESIAN_POINT('',(4.75735931288072,-9.51471862576143,-25.9));
#445=CARTESIAN_POINT('',(-4.75735931288072,-9.51471862576143,-25.9));
#446=CARTESIAN_POINT('',(-4.75735931288072,0.,-25.9));
#447=CARTESIAN_POINT('',(-4.75735931288072,9.51471862576143,-25.9));
#448=CARTESIAN_POINT('',(4.75735931288072,9.51471862576143,-25.9));
#449=CARTESIAN_POINT('',(4.75735931288072,0.,-25.9));
#450=CARTESIAN_POINT('',(6.,0.,-24.6573593128807));
#451=CARTESIAN_POINT('',(6.,-12.,-24.6573593128807));
#452=CARTESIAN_POINT('',(-6.,-12.,-24.6573593128807));
#453=CARTESIAN_POINT('',(-6.,0.,-24.6573593128807));
#454=CARTESIAN_POINT('',(-6.,12.,-24.6573593128807));
#455=CARTESIAN_POINT('',(6.,12.,-24.6573593128807));
#456=CARTESIAN_POINT('',(6.,0.,-24.6573593128807));
#457=CARTESIAN_POINT('',(6.,0.,-22.9));
#458=CARTESIAN_POINT('',(6.,-12.,-22.9));
#459=CARTESIAN_POINT('',(-6.,-12.,-22.9));
#460=CARTESIAN_POINT('',(-6.,0.,-22.9));
#461=CARTESIAN_POINT('',(-6.,12.,-22.9));
#462=CARTESIAN_POINT('',(6.,12.,-22.9));
#463=CARTESIAN_POINT('',(6.,0.,-22.9));
#464=CARTESIAN_POINT('',(3.,0.,-25.9));
#465=CARTESIAN_POINT('',(0.,0.,-7.9));
#466=MECHANICAL_DESIGN_GEOMETRIC_PRESENTATION_REPRESENTATION('',(#231,#232,
#233,#234,#235,#236,#237,#238,#239,#240),#467);
#467=(
GEOMETRIC_REPRESENTATION_CONTEXT(3)
GLOBAL_UNCERTAINTY_ASSIGNED_CONTEXT((#468))
GLOBAL_UNIT_ASSIGNED_CONTEXT((#474,#470,#469))
REPRESENTATION_CONTEXT('XSE720E12120D3R300Z6_Basic',
'TOP_LEVEL_ASSEMBLY_PART')
);
#468=UNCERTAINTY_MEASURE_WITH_UNIT(LENGTH_MEASURE(0.0254),#474,
'DISTANCE_ACCURACY_VALUE','Maximum Tolerance applied to model');
#469=(
NAMED_UNIT(*)
SI_UNIT($,.STERADIAN.)
SOLID_ANGLE_UNIT()
);
#470=(
CONVERSION_BASED_UNIT('DEGREE',#472)
NAMED_UNIT(#471)
PLANE_ANGLE_UNIT()
);
#471=DIMENSIONAL_EXPONENTS(0.,0.,0.,0.,0.,0.,0.);
#472=PLANE_ANGLE_MEASURE_WITH_UNIT(PLANE_ANGLE_MEASURE(0.0174532925),#473);
#473=(
NAMED_UNIT(*)
PLANE_ANGLE_UNIT()
SI_UNIT($,.RADIAN.)
);
#474=(
LENGTH_UNIT()
NAMED_UNIT(*)
SI_UNIT(.MILLI.,.METRE.)
);
ENDSEC;
END-ISO-10303-21;
