ISO-10303-21;
HEADER;
/* Generated by software containing ST-Developer
 * from STEP Tools, Inc. (www.steptools.com) 
 */
/* OPTION: using custom schema-name function */

FILE_DESCRIPTION(
/* description */ (''),
/* implementation_level */ '2;1');

FILE_NAME(
/* name */ 'XE20250J4-200-02.0E_Basic.stp',
/* time_stamp */ '2022-07-27T11:30:14+05:00',
/* author */ (''),
/* organization */ (''),
/* preprocessor_version */ 'ST-DEVELOPER v16.7',
/* originating_system */ 'SIEMENS PLM Software NX 12.0',
/* authorisation */ '');

FILE_SCHEMA (('AUTOMOTIVE_DESIGN { 1 0 10303 214 3 1 1 1 }'));
ENDSEC;

DATA;
#10=CONSTRUCTIVE_GEOMETRY_REPRESENTATION_RELATIONSHIP(
'supplemental geometry','',#34,#11);
#11=CONSTRUCTIVE_GEOMETRY_REPRESENTATION('supplemental geometry',(#276,
#277,#278),#462);
#12=GEOMETRICALLY_BOUNDED_WIREFRAME_SHAPE_REPRESENTATION(
'inpu32D04B72ntx6-None',(#35),#462);
#13=PROPERTY_DEFINITION_REPRESENTATION(#17,#15);
#14=PROPERTY_DEFINITION_REPRESENTATION(#18,#16);
#15=REPRESENTATION('',(#19),#462);
#16=REPRESENTATION('',(#20),#462);
#17=PROPERTY_DEFINITION('pmi validation property','',#25);
#18=PROPERTY_DEFINITION('pmi validation property','',#25);
#19=VALUE_REPRESENTATION_ITEM('number of annotations',COUNT_MEASURE(0.));
#20=VALUE_REPRESENTATION_ITEM('number of views',COUNT_MEASURE(0.));
#21=SHAPE_REPRESENTATION_RELATIONSHIP('None',
'relationship between inpu32D04B72ntx6-None and inpu32D04B72ntx6-None',
#34,#23);
#22=SHAPE_REPRESENTATION_RELATIONSHIP('None',
'relationship between inpu32D04B72ntx6-None and inpu32D04B72ntx6-None',
#34,#12);
#23=ADVANCED_BREP_SHAPE_REPRESENTATION('inpu32D04B72ntx6-None',(#41),#462);
#24=SHAPE_DEFINITION_REPRESENTATION(#25,#34);
#25=PRODUCT_DEFINITION_SHAPE('','',#26);
#26=PRODUCT_DEFINITION(' ','',#28,#27);
#27=PRODUCT_DEFINITION_CONTEXT('part definition',#33,'design');
#28=PRODUCT_DEFINITION_FORMATION_WITH_SPECIFIED_SOURCE(' ',' ',#30,
 .NOT_KNOWN.);
#29=PRODUCT_RELATED_PRODUCT_CATEGORY('part','',(#30));
#30=PRODUCT('inpu32D04B72ntx6','inpu32D04B72ntx6',' ',(#31));
#31=PRODUCT_CONTEXT(' ',#33,'mechanical');
#32=APPLICATION_PROTOCOL_DEFINITION('international standard',
'automotive_design',2010,#33);
#33=APPLICATION_CONTEXT(
'core data for automotive mechanical design processes');
#34=SHAPE_REPRESENTATION('inpu32D04B72ntx6-None',(#275),#462);
#35=GEOMETRIC_CURVE_SET('None',(#399,#400,#401));
#36=SURFACE_STYLE_USAGE(.BOTH.,#37);
#37=SURFACE_SIDE_STYLE('',(#38));
#38=SURFACE_STYLE_FILL_AREA(#39);
#39=FILL_AREA_STYLE('',(#40));
#40=FILL_AREA_STYLE_COLOUR('',#274);
#41=MANIFOLD_SOLID_BREP('NOCUT',#42);
#42=CLOSED_SHELL('',(#61,#62,#63,#64,#65,#66,#67,#68,#69,#70,#71,#72,#73,
#74,#75,#76,#77,#78,#79));
#43=TOROIDAL_SURFACE('',#294,5.025,0.4);
#44=TOROIDAL_SURFACE('',#298,5.32657930542099,1.3);
#45=TOROIDAL_SURFACE('',#302,5.68461794381033,0.4);
#46=TOROIDAL_SURFACE('',#308,6.85769807627063,0.5);
#47=TOROIDAL_SURFACE('',#312,6.85769807627063,0.500000000000001);
#48=VERTEX_LOOP('',#197);
#49=FACE_OUTER_BOUND('',#125,.T.);
#50=PLANE('',#285);
#51=PLANE('',#287);
#52=CONICAL_SURFACE('',#283,12.49675,1.99999999999999);
#53=CONICAL_SURFACE('',#288,11.49675,45.);
#54=CONICAL_SURFACE('',#290,0.,59.);
#55=CONICAL_SURFACE('',#296,4.95554072893323,80.0000000000007);
#56=CONICAL_SURFACE('',#300,5.77120549174436,69.9999999999998);
#57=CONICAL_SURFACE('',#304,5.28680918566302,5.99999999999999);
#58=CONICAL_SURFACE('',#306,6.2153,70.0000000000001);
#59=CONICAL_SURFACE('',#314,7.25769807627063,2.);
#60=CONICAL_SURFACE('',#315,7.32404753830495,46.9999999999999);
#61=ADVANCED_FACE('FP_EH_SU1',(#83,#84),#80,.T.);
#62=ADVANCED_FACE('FP_EH_SU3',(#85,#86),#52,.T.);
#63=ADVANCED_FACE('FP_EH_SU4',(#87,#88),#50,.T.);
#64=ADVANCED_FACE('',(#49),#51,.F.);
#65=ADVANCED_FACE('',(#89,#90),#53,.T.);
#66=ADVANCED_FACE('',(#91,#92),#54,.F.);
#67=ADVANCED_FACE('DCH3',(#93,#94),#81,.F.);
#68=ADVANCED_FACE('',(#95,#96),#43,.T.);
#69=ADVANCED_FACE('',(#97,#98),#55,.F.);
#70=ADVANCED_FACE('',(#99,#100),#44,.F.);
#71=ADVANCED_FACE('',(#101,#102),#56,.F.);
#72=ADVANCED_FACE('',(#103,#104),#45,.T.);
#73=ADVANCED_FACE('TSALN',(#105,#106),#57,.F.);
#74=ADVANCED_FACE('',(#107,#108),#58,.F.);
#75=ADVANCED_FACE('',(#109,#110),#46,.F.);
#76=ADVANCED_FACE('DCH2',(#111,#112),#82,.F.);
#77=ADVANCED_FACE('',(#113,#114),#47,.F.);
#78=ADVANCED_FACE('TSAN',(#115,#116),#59,.F.);
#79=ADVANCED_FACE('DCH4',(#117,#118),#60,.F.);
#80=CYLINDRICAL_SURFACE('',#281,12.49675);
#81=CYLINDRICAL_SURFACE('',#292,4.625);
#82=CYLINDRICAL_SURFACE('',#310,7.35769807627063);
#83=FACE_BOUND('',#119,.T.);
#84=FACE_BOUND('',#120,.T.);
#85=FACE_BOUND('',#121,.T.);
#86=FACE_BOUND('',#122,.T.);
#87=FACE_BOUND('',#123,.T.);
#88=FACE_BOUND('',#124,.T.);
#89=FACE_BOUND('',#126,.T.);
#90=FACE_BOUND('',#127,.T.);
#91=FACE_BOUND('',#128,.T.);
#92=FACE_BOUND('',#48,.T.);
#93=FACE_BOUND('',#129,.T.);
#94=FACE_BOUND('',#130,.T.);
#95=FACE_BOUND('',#131,.T.);
#96=FACE_BOUND('',#132,.T.);
#97=FACE_BOUND('',#133,.T.);
#98=FACE_BOUND('',#134,.T.);
#99=FACE_BOUND('',#135,.T.);
#100=FACE_BOUND('',#136,.T.);
#101=FACE_BOUND('',#137,.T.);
#102=FACE_BOUND('',#138,.T.);
#103=FACE_BOUND('',#139,.T.);
#104=FACE_BOUND('',#140,.T.);
#105=FACE_BOUND('',#141,.T.);
#106=FACE_BOUND('',#142,.T.);
#107=FACE_BOUND('',#143,.T.);
#108=FACE_BOUND('',#144,.T.);
#109=FACE_BOUND('',#145,.T.);
#110=FACE_BOUND('',#146,.T.);
#111=FACE_BOUND('',#147,.T.);
#112=FACE_BOUND('',#148,.T.);
#113=FACE_BOUND('',#149,.T.);
#114=FACE_BOUND('',#150,.T.);
#115=FACE_BOUND('',#151,.T.);
#116=FACE_BOUND('',#152,.T.);
#117=FACE_BOUND('',#153,.T.);
#118=FACE_BOUND('',#154,.T.);
#119=EDGE_LOOP('',(#155));
#120=EDGE_LOOP('',(#156));
#121=EDGE_LOOP('',(#157));
#122=EDGE_LOOP('',(#158));
#123=EDGE_LOOP('',(#159));
#124=EDGE_LOOP('',(#160));
#125=EDGE_LOOP('',(#161));
#126=EDGE_LOOP('',(#162));
#127=EDGE_LOOP('',(#163));
#128=EDGE_LOOP('',(#164));
#129=EDGE_LOOP('',(#165));
#130=EDGE_LOOP('',(#166));
#131=EDGE_LOOP('',(#167));
#132=EDGE_LOOP('',(#168));
#133=EDGE_LOOP('',(#169));
#134=EDGE_LOOP('',(#170));
#135=EDGE_LOOP('',(#171));
#136=EDGE_LOOP('',(#172));
#137=EDGE_LOOP('',(#173));
#138=EDGE_LOOP('',(#174));
#139=EDGE_LOOP('',(#175));
#140=EDGE_LOOP('',(#176));
#141=EDGE_LOOP('',(#177));
#142=EDGE_LOOP('',(#178));
#143=EDGE_LOOP('',(#179));
#144=EDGE_LOOP('',(#180));
#145=EDGE_LOOP('',(#181));
#146=EDGE_LOOP('',(#182));
#147=EDGE_LOOP('',(#183));
#148=EDGE_LOOP('',(#184));
#149=EDGE_LOOP('',(#185));
#150=EDGE_LOOP('',(#186));
#151=EDGE_LOOP('',(#187));
#152=EDGE_LOOP('',(#188));
#153=EDGE_LOOP('',(#189));
#154=EDGE_LOOP('',(#190));
#155=ORIENTED_EDGE('',*,*,#210,.T.);
#156=ORIENTED_EDGE('',*,*,#211,.T.);
#157=ORIENTED_EDGE('',*,*,#212,.T.);
#158=ORIENTED_EDGE('',*,*,#210,.F.);
#159=ORIENTED_EDGE('',*,*,#213,.F.);
#160=ORIENTED_EDGE('',*,*,#212,.F.);
#161=ORIENTED_EDGE('',*,*,#214,.F.);
#162=ORIENTED_EDGE('',*,*,#211,.F.);
#163=ORIENTED_EDGE('',*,*,#214,.T.);
#164=ORIENTED_EDGE('',*,*,#215,.T.);
#165=ORIENTED_EDGE('',*,*,#216,.T.);
#166=ORIENTED_EDGE('',*,*,#215,.F.);
#167=ORIENTED_EDGE('',*,*,#217,.T.);
#168=ORIENTED_EDGE('',*,*,#216,.F.);
#169=ORIENTED_EDGE('',*,*,#218,.T.);
#170=ORIENTED_EDGE('',*,*,#217,.F.);
#171=ORIENTED_EDGE('',*,*,#219,.T.);
#172=ORIENTED_EDGE('',*,*,#218,.F.);
#173=ORIENTED_EDGE('',*,*,#220,.T.);
#174=ORIENTED_EDGE('',*,*,#219,.F.);
#175=ORIENTED_EDGE('',*,*,#221,.T.);
#176=ORIENTED_EDGE('',*,*,#220,.F.);
#177=ORIENTED_EDGE('',*,*,#222,.T.);
#178=ORIENTED_EDGE('',*,*,#221,.F.);
#179=ORIENTED_EDGE('',*,*,#223,.T.);
#180=ORIENTED_EDGE('',*,*,#222,.F.);
#181=ORIENTED_EDGE('',*,*,#224,.T.);
#182=ORIENTED_EDGE('',*,*,#223,.F.);
#183=ORIENTED_EDGE('',*,*,#225,.T.);
#184=ORIENTED_EDGE('',*,*,#224,.F.);
#185=ORIENTED_EDGE('',*,*,#226,.T.);
#186=ORIENTED_EDGE('',*,*,#225,.F.);
#187=ORIENTED_EDGE('',*,*,#227,.T.);
#188=ORIENTED_EDGE('',*,*,#226,.F.);
#189=ORIENTED_EDGE('',*,*,#213,.T.);
#190=ORIENTED_EDGE('',*,*,#227,.F.);
#191=VERTEX_POINT('',#406);
#192=VERTEX_POINT('',#408);
#193=VERTEX_POINT('',#411);
#194=VERTEX_POINT('',#414);
#195=VERTEX_POINT('',#417);
#196=VERTEX_POINT('',#421);
#197=VERTEX_POINT('',#422);
#198=VERTEX_POINT('',#425);
#199=VERTEX_POINT('',#428);
#200=VERTEX_POINT('',#431);
#201=VERTEX_POINT('',#434);
#202=VERTEX_POINT('',#437);
#203=VERTEX_POINT('',#440);
#204=VERTEX_POINT('',#443);
#205=VERTEX_POINT('',#446);
#206=VERTEX_POINT('',#449);
#207=VERTEX_POINT('',#452);
#208=VERTEX_POINT('',#455);
#209=VERTEX_POINT('',#458);
#210=EDGE_CURVE('',#191,#191,#228,.T.);
#211=EDGE_CURVE('',#192,#192,#229,.T.);
#212=EDGE_CURVE('',#193,#193,#230,.T.);
#213=EDGE_CURVE('',#194,#194,#231,.T.);
#214=EDGE_CURVE('',#195,#195,#232,.T.);
#215=EDGE_CURVE('',#196,#196,#233,.T.);
#216=EDGE_CURVE('',#198,#198,#234,.T.);
#217=EDGE_CURVE('',#199,#199,#235,.T.);
#218=EDGE_CURVE('',#200,#200,#236,.T.);
#219=EDGE_CURVE('',#201,#201,#237,.T.);
#220=EDGE_CURVE('',#202,#202,#238,.T.);
#221=EDGE_CURVE('',#203,#203,#239,.T.);
#222=EDGE_CURVE('',#204,#204,#240,.T.);
#223=EDGE_CURVE('',#205,#205,#241,.T.);
#224=EDGE_CURVE('',#206,#206,#242,.T.);
#225=EDGE_CURVE('',#207,#207,#243,.T.);
#226=EDGE_CURVE('',#208,#208,#244,.T.);
#227=EDGE_CURVE('',#209,#209,#245,.T.);
#228=CIRCLE('',#279,12.49675);
#229=CIRCLE('',#280,12.49675);
#230=CIRCLE('',#282,9.59999999999997);
#231=CIRCLE('',#284,7.96746876431976);
#232=CIRCLE('',#286,11.49675);
#233=CIRCLE('',#289,4.625);
#234=CIRCLE('',#291,4.625);
#235=CIRCLE('',#293,4.95554072893323);
#236=CIRCLE('',#295,5.552321936388);
#237=CIRCLE('',#297,5.77120549174436);
#238=CIRCLE('',#299,5.54780988648006);
#239=CIRCLE('',#301,5.28680918566302);
#240=CIRCLE('',#303,6.2153);
#241=CIRCLE('',#305,7.02870814793346);
#242=CIRCLE('',#307,7.35769807627063);
#243=CIRCLE('',#309,7.35769807627063);
#244=CIRCLE('',#311,7.25769807627063);
#245=CIRCLE('',#313,7.32404753830495);
#246=CURVE_STYLE('',#249,POSITIVE_LENGTH_MEASURE(0.18),#273);
#247=CURVE_STYLE('',#250,POSITIVE_LENGTH_MEASURE(0.18),#273);
#248=CURVE_STYLE('',#251,POSITIVE_LENGTH_MEASURE(0.18),#273);
#249=DRAUGHTING_PRE_DEFINED_CURVE_FONT('continuous');
#250=DRAUGHTING_PRE_DEFINED_CURVE_FONT('continuous');
#251=DRAUGHTING_PRE_DEFINED_CURVE_FONT('continuous');
#252=PRESENTATION_LAYER_ASSIGNMENT('1','Layer 1',(#399,#400,#401,#276,#277,
#278,#41));
#253=STYLED_ITEM('',(#260),#399);
#254=STYLED_ITEM('',(#261),#400);
#255=STYLED_ITEM('',(#262),#401);
#256=STYLED_ITEM('',(#263),#276);
#257=STYLED_ITEM('',(#264),#277);
#258=STYLED_ITEM('',(#265),#278);
#259=STYLED_ITEM('',(#266),#41);
#260=PRESENTATION_STYLE_ASSIGNMENT((#267));
#261=PRESENTATION_STYLE_ASSIGNMENT((#268));
#262=PRESENTATION_STYLE_ASSIGNMENT((#269));
#263=PRESENTATION_STYLE_ASSIGNMENT((#246));
#264=PRESENTATION_STYLE_ASSIGNMENT((#247));
#265=PRESENTATION_STYLE_ASSIGNMENT((#248));
#266=PRESENTATION_STYLE_ASSIGNMENT((#36));
#267=POINT_STYLE('',#270,POSITIVE_LENGTH_MEASURE(3.),#273);
#268=POINT_STYLE('',#271,POSITIVE_LENGTH_MEASURE(3.),#273);
#269=POINT_STYLE('',#272,POSITIVE_LENGTH_MEASURE(3.),#273);
#270=PRE_DEFINED_POINT_MARKER_SYMBOL('plus');
#271=PRE_DEFINED_POINT_MARKER_SYMBOL('plus');
#272=PRE_DEFINED_POINT_MARKER_SYMBOL('plus');
#273=COLOUR_RGB('Strong Stone',0.576470588235294,0.54508278019379,0.392156862745098);
#274=COLOUR_RGB('Medium Gray',0.490196078431373,0.490196078431373,0.490196078431373);
#275=AXIS2_PLACEMENT_3D('',#398,#316,#317);
#276=AXIS2_PLACEMENT_3D('PCS',#402,#318,#319);
#277=AXIS2_PLACEMENT_3D('MCS',#403,#320,#321);
#278=AXIS2_PLACEMENT_3D('CSW',#404,#322,#323);
#279=AXIS2_PLACEMENT_3D('',#405,#324,#325);
#280=AXIS2_PLACEMENT_3D('',#407,#326,#327);
#281=AXIS2_PLACEMENT_3D('',#409,#328,#329);
#282=AXIS2_PLACEMENT_3D('',#410,#330,#331);
#283=AXIS2_PLACEMENT_3D('',#412,#332,#333);
#284=AXIS2_PLACEMENT_3D('',#413,#334,#335);
#285=AXIS2_PLACEMENT_3D('',#415,#336,#337);
#286=AXIS2_PLACEMENT_3D('',#416,#338,#339);
#287=AXIS2_PLACEMENT_3D('',#418,#340,#341);
#288=AXIS2_PLACEMENT_3D('',#419,#342,#343);
#289=AXIS2_PLACEMENT_3D('',#420,#344,#345);
#290=AXIS2_PLACEMENT_3D('',#423,#346,#347);
#291=AXIS2_PLACEMENT_3D('',#424,#348,#349);
#292=AXIS2_PLACEMENT_3D('',#426,#350,#351);
#293=AXIS2_PLACEMENT_3D('',#427,#352,#353);
#294=AXIS2_PLACEMENT_3D('',#429,#354,#355);
#295=AXIS2_PLACEMENT_3D('',#430,#356,#357);
#296=AXIS2_PLACEMENT_3D('',#432,#358,#359);
#297=AXIS2_PLACEMENT_3D('',#433,#360,#361);
#298=AXIS2_PLACEMENT_3D('',#435,#362,#363);
#299=AXIS2_PLACEMENT_3D('',#436,#364,#365);
#300=AXIS2_PLACEMENT_3D('',#438,#366,#367);
#301=AXIS2_PLACEMENT_3D('',#439,#368,#369);
#302=AXIS2_PLACEMENT_3D('',#441,#370,#371);
#303=AXIS2_PLACEMENT_3D('',#442,#372,#373);
#304=AXIS2_PLACEMENT_3D('',#444,#374,#375);
#305=AXIS2_PLACEMENT_3D('',#445,#376,#377);
#306=AXIS2_PLACEMENT_3D('',#447,#378,#379);
#307=AXIS2_PLACEMENT_3D('',#448,#380,#381);
#308=AXIS2_PLACEMENT_3D('',#450,#382,#383);
#309=AXIS2_PLACEMENT_3D('',#451,#384,#385);
#310=AXIS2_PLACEMENT_3D('',#453,#386,#387);
#311=AXIS2_PLACEMENT_3D('',#454,#388,#389);
#312=AXIS2_PLACEMENT_3D('',#456,#390,#391);
#313=AXIS2_PLACEMENT_3D('',#457,#392,#393);
#314=AXIS2_PLACEMENT_3D('',#459,#394,#395);
#315=AXIS2_PLACEMENT_3D('',#460,#396,#397);
#316=DIRECTION('',(0.,0.,1.));
#317=DIRECTION('',(1.,0.,0.));
#318=DIRECTION('',(0.,0.,1.));
#319=DIRECTION('',(1.,0.,0.));
#320=DIRECTION('',(0.,0.,1.));
#321=DIRECTION('',(1.,0.,0.));
#322=DIRECTION('',(0.,0.,1.));
#323=DIRECTION('',(1.,0.,0.));
#324=DIRECTION('',(-2.93974547365534E-16,0.,1.));
#325=DIRECTION('',(-1.,0.,0.));
#326=DIRECTION('',(0.,0.,-1.));
#327=DIRECTION('',(1.,0.,0.));
#328=DIRECTION('',(-2.93974547365534E-16,0.,1.));
#329=DIRECTION('',(-1.,0.,-5.55255878841077E-16));
#330=DIRECTION('',(-2.93974547365534E-16,0.,1.));
#331=DIRECTION('',(-1.,0.,0.));
#332=DIRECTION('',(-2.93974547365534E-16,0.,1.));
#333=DIRECTION('',(-1.,0.,0.));
#334=DIRECTION('',(0.,0.,-1.));
#335=DIRECTION('',(1.,0.,0.));
#336=DIRECTION('',(2.93974547365534E-16,0.,-1.));
#337=DIRECTION('',(1.,0.,3.05311331771918E-16));
#338=DIRECTION('',(0.,0.,-1.));
#339=DIRECTION('',(1.,0.,0.));
#340=DIRECTION('',(0.,0.,-1.));
#341=DIRECTION('',(1.,0.,0.));
#342=DIRECTION('',(0.,0.,-1.));
#343=DIRECTION('',(1.,0.,0.));
#344=DIRECTION('',(0.,0.,-1.));
#345=DIRECTION('',(1.,0.,0.));
#346=DIRECTION('',(0.,0.,-1.));
#347=DIRECTION('',(1.,0.,-3.33544646917461E-17));
#348=DIRECTION('',(0.,0.,-1.));
#349=DIRECTION('',(1.,0.,0.));
#350=DIRECTION('',(0.,0.,-1.));
#351=DIRECTION('',(1.,0.,0.));
#352=DIRECTION('',(0.,0.,-1.));
#353=DIRECTION('',(1.,0.,0.));
#354=DIRECTION('',(0.,0.,-1.));
#355=DIRECTION('',(1.,0.,0.));
#356=DIRECTION('',(0.,0.,-1.));
#357=DIRECTION('',(1.,0.,0.));
#358=DIRECTION('',(0.,0.,-1.));
#359=DIRECTION('',(1.,0.,0.));
#360=DIRECTION('',(0.,0.,-1.));
#361=DIRECTION('',(1.,0.,0.));
#362=DIRECTION('',(0.,0.,-1.));
#363=DIRECTION('',(1.,0.,0.));
#364=DIRECTION('',(0.,0.,-1.));
#365=DIRECTION('',(1.,0.,0.));
#366=DIRECTION('',(0.,0.,1.));
#367=DIRECTION('',(-1.,0.,2.01620553728016E-17));
#368=DIRECTION('',(0.,0.,-1.));
#369=DIRECTION('',(1.,0.,0.));
#370=DIRECTION('',(0.,0.,-1.));
#371=DIRECTION('',(1.,0.,0.));
#372=DIRECTION('',(0.,0.,-1.));
#373=DIRECTION('',(1.,0.,0.));
#374=DIRECTION('',(0.,0.,-1.));
#375=DIRECTION('',(1.,0.,5.02859190318897E-16));
#376=DIRECTION('',(0.,0.,-1.));
#377=DIRECTION('',(1.,0.,0.));
#378=DIRECTION('',(0.,0.,-1.));
#379=DIRECTION('',(1.,0.,2.0158803790661E-17));
#380=DIRECTION('',(0.,0.,-1.));
#381=DIRECTION('',(1.,0.,0.));
#382=DIRECTION('',(0.,0.,-1.));
#383=DIRECTION('',(1.,0.,0.));
#384=DIRECTION('',(0.,0.,-1.));
#385=DIRECTION('',(1.,0.,0.));
#386=DIRECTION('',(0.,0.,-1.));
#387=DIRECTION('',(1.,0.,0.));
#388=DIRECTION('',(0.,0.,-1.));
#389=DIRECTION('',(1.,0.,0.));
#390=DIRECTION('',(0.,0.,-1.));
#391=DIRECTION('',(1.,0.,0.));
#392=DIRECTION('',(0.,0.,-1.));
#393=DIRECTION('',(1.,0.,0.));
#394=DIRECTION('',(0.,0.,-1.));
#395=DIRECTION('',(1.,0.,0.));
#396=DIRECTION('',(0.,0.,-1.));
#397=DIRECTION('',(1.,0.,0.));
#398=CARTESIAN_POINT('',(0.,0.,0.));
#399=CARTESIAN_POINT('',(0.,0.,0.));
#400=CARTESIAN_POINT('',(0.,0.,-56.));
#401=CARTESIAN_POINT('',(0.,0.,-200.));
#402=CARTESIAN_POINT('',(0.,0.,0.));
#403=CARTESIAN_POINT('',(0.,0.,-56.));
#404=CARTESIAN_POINT('',(0.,0.,-200.));
#405=CARTESIAN_POINT('',(9.2728870108311E-16,0.,-117.047933302713));
#406=CARTESIAN_POINT('',(-12.49675,0.,-117.047933302713));
#407=CARTESIAN_POINT('',(0.,0.,-1.));
#408=CARTESIAN_POINT('',(12.49675,0.,-1.));
#409=CARTESIAN_POINT('',(-1.64313007644523E-14,0.,-58.));
#410=CARTESIAN_POINT('',(2.53130849614536E-14,0.,-200.));
#411=CARTESIAN_POINT('',(-9.59999999999995,0.,-200.));
#412=CARTESIAN_POINT('',(9.2728870108311E-16,0.,-117.047933302713));
#413=CARTESIAN_POINT('',(0.,0.,-200.));
#414=CARTESIAN_POINT('',(7.96746876431976,0.,-200.));
#415=CARTESIAN_POINT('',(9.6,0.,-200.));
#416=CARTESIAN_POINT('',(0.,0.,0.));
#417=CARTESIAN_POINT('',(11.49675,0.,0.));
#418=CARTESIAN_POINT('',(0.,0.,0.));
#419=CARTESIAN_POINT('',(0.,0.,0.));
#420=CARTESIAN_POINT('',(0.,0.,-178.5));
#421=CARTESIAN_POINT('',(4.625,0.,-178.5));
#422=CARTESIAN_POINT('',(0.,0.,-175.721019636998));
#423=CARTESIAN_POINT('',(0.,0.,-175.721019636998));
#424=CARTESIAN_POINT('',(0.,0.,-182.5));
#425=CARTESIAN_POINT('',(4.625,0.,-182.5));
#426=CARTESIAN_POINT('',(0.,0.,-200.));
#427=CARTESIAN_POINT('',(0.,0.,-182.893923101205));
#428=CARTESIAN_POINT('',(4.95554072893323,0.,-182.893923101205));
#429=CARTESIAN_POINT('',(0.,0.,-182.5));
#430=CARTESIAN_POINT('',(0.,0.,-182.999151729659));
#431=CARTESIAN_POINT('',(5.552321936388,0.,-182.999151729659));
#432=CARTESIAN_POINT('',(0.,0.,-182.893923101205));
#433=CARTESIAN_POINT('',(0.,0.,-185.501002215597));
#434=CARTESIAN_POINT('',(5.77120549174436,0.,-185.501002215597));
#435=CARTESIAN_POINT('',(0.,0.,-184.279401808575));
#436=CARTESIAN_POINT('',(0.,0.,-185.582311566379));
#437=CARTESIAN_POINT('',(5.54780988648006,0.,-185.582311566379));
#438=CARTESIAN_POINT('',(0.,0.,-185.501002215597));
#439=CARTESIAN_POINT('',(0.,0.,-186.));
#440=CARTESIAN_POINT('',(5.28680918566302,0.,-186.));
#441=CARTESIAN_POINT('',(0.,0.,-185.958188614693));
#442=CARTESIAN_POINT('',(0.,0.,-194.834));
#443=CARTESIAN_POINT('',(6.2153,0.,-194.834));
#444=CARTESIAN_POINT('',(0.,0.,-186.));
#445=CARTESIAN_POINT('',(0.,0.,-195.130056354157));
#446=CARTESIAN_POINT('',(7.02870814793346,0.,-195.130056354157));
#447=CARTESIAN_POINT('',(0.,0.,-194.834));
#448=CARTESIAN_POINT('',(0.,0.,-195.59990266455));
#449=CARTESIAN_POINT('',(7.35769807627063,0.,-195.59990266455));
#450=CARTESIAN_POINT('',(0.,0.,-195.59990266455));
#451=CARTESIAN_POINT('',(0.,0.,-197.2));
#452=CARTESIAN_POINT('',(7.35769807627063,0.,-197.2));
#453=CARTESIAN_POINT('',(0.,0.,-200.));
#454=CARTESIAN_POINT('',(0.,0.,-197.5));
#455=CARTESIAN_POINT('',(7.25769807627063,0.,-197.5));
#456=CARTESIAN_POINT('',(0.,0.,-197.2));
#457=CARTESIAN_POINT('',(0.,0.,-199.4));
#458=CARTESIAN_POINT('',(7.32404753830495,0.,-199.4));
#459=CARTESIAN_POINT('',(0.,0.,-197.5));
#460=CARTESIAN_POINT('',(0.,0.,-199.4));
#461=MECHANICAL_DESIGN_GEOMETRIC_PRESENTATION_REPRESENTATION('',(#253,#254,
#255,#256,#257,#258,#259),#462);
#462=(
GEOMETRIC_REPRESENTATION_CONTEXT(3)
GLOBAL_UNCERTAINTY_ASSIGNED_CONTEXT((#463))
GLOBAL_UNIT_ASSIGNED_CONTEXT((#469,#465,#464))
REPRESENTATION_CONTEXT('XE20250J4-200-02','TOP_LEVEL_ASSEMBLY_PART')
);
#463=UNCERTAINTY_MEASURE_WITH_UNIT(LENGTH_MEASURE(2.E-5),#469,
'DISTANCE_ACCURACY_VALUE','Maximum Tolerance applied to model');
#464=(
NAMED_UNIT(*)
SI_UNIT($,.STERADIAN.)
SOLID_ANGLE_UNIT()
);
#465=(
CONVERSION_BASED_UNIT('DEGREE',#467)
NAMED_UNIT(#466)
PLANE_ANGLE_UNIT()
);
#466=DIMENSIONAL_EXPONENTS(0.,0.,0.,0.,0.,0.,0.);
#467=PLANE_ANGLE_MEASURE_WITH_UNIT(PLANE_ANGLE_MEASURE(0.0174532925),#468);
#468=(
NAMED_UNIT(*)
PLANE_ANGLE_UNIT()
SI_UNIT($,.RADIAN.)
);
#469=(
LENGTH_UNIT()
NAMED_UNIT(*)
SI_UNIT(.MILLI.,.METRE.)
);
ENDSEC;
END-ISO-10303-21;
