ISO-10303-21;
HEADER;
/* Generated by software containing ST-Developer
 * from STEP Tools, Inc. (www.steptools.com) 
 */
/* OPTION: using custom schema-name function */

FILE_DESCRIPTION(
/* description */ (''),
/* implementation_level */ '2;1');

FILE_NAME(
/* name */ 'XE25250E4-200-00.0E_Basic.stp',
/* time_stamp */ '2022-07-27T09:50:10+05:00',
/* author */ (''),
/* organization */ (''),
/* preprocessor_version */ 'ST-DEVELOPER v16.7',
/* originating_system */ 'SIEMENS PLM Software NX 12.0',
/* authorisation */ '');

FILE_SCHEMA (('AUTOMOTIVE_DESIGN { 1 0 10303 214 3 1 1 1 }'));
ENDSEC;

DATA;
#10=CONSTRUCTIVE_GEOMETRY_REPRESENTATION_RELATIONSHIP(
'supplemental geometry','',#34,#11);
#11=CONSTRUCTIVE_GEOMETRY_REPRESENTATION('supplemental geometry',(#287,
#288,#289),#482);
#12=GEOMETRICALLY_BOUNDED_WIREFRAME_SHAPE_REPRESENTATION(
'inpu32D04B72nttd-None',(#35),#482);
#13=PROPERTY_DEFINITION_REPRESENTATION(#17,#15);
#14=PROPERTY_DEFINITION_REPRESENTATION(#18,#16);
#15=REPRESENTATION('',(#19),#482);
#16=REPRESENTATION('',(#20),#482);
#17=PROPERTY_DEFINITION('pmi validation property','',#25);
#18=PROPERTY_DEFINITION('pmi validation property','',#25);
#19=VALUE_REPRESENTATION_ITEM('number of annotations',COUNT_MEASURE(0.));
#20=VALUE_REPRESENTATION_ITEM('number of views',COUNT_MEASURE(0.));
#21=SHAPE_REPRESENTATION_RELATIONSHIP('None',
'relationship between inpu32D04B72nttd-None and inpu32D04B72nttd-None',
#34,#23);
#22=SHAPE_REPRESENTATION_RELATIONSHIP('None',
'relationship between inpu32D04B72nttd-None and inpu32D04B72nttd-None',
#34,#12);
#23=ADVANCED_BREP_SHAPE_REPRESENTATION('inpu32D04B72nttd-None',(#41),#482);
#24=SHAPE_DEFINITION_REPRESENTATION(#25,#34);
#25=PRODUCT_DEFINITION_SHAPE('','',#26);
#26=PRODUCT_DEFINITION(' ','',#28,#27);
#27=PRODUCT_DEFINITION_CONTEXT('part definition',#33,'design');
#28=PRODUCT_DEFINITION_FORMATION_WITH_SPECIFIED_SOURCE(' ',' ',#30,
 .NOT_KNOWN.);
#29=PRODUCT_RELATED_PRODUCT_CATEGORY('part','',(#30));
#30=PRODUCT('inpu32D04B72nttd','inpu32D04B72nttd',' ',(#31));
#31=PRODUCT_CONTEXT(' ',#33,'mechanical');
#32=APPLICATION_PROTOCOL_DEFINITION('international standard',
'automotive_design',2010,#33);
#33=APPLICATION_CONTEXT(
'core data for automotive mechanical design processes');
#34=SHAPE_REPRESENTATION('inpu32D04B72nttd-None',(#286),#482);
#35=GEOMETRIC_CURVE_SET('None',(#416,#417,#418));
#36=SURFACE_STYLE_USAGE(.BOTH.,#37);
#37=SURFACE_SIDE_STYLE('',(#38));
#38=SURFACE_STYLE_FILL_AREA(#39);
#39=FILL_AREA_STYLE('',(#40));
#40=FILL_AREA_STYLE_COLOUR('',#285);
#41=MANIFOLD_SOLID_BREP('NOCUT',#42);
#42=CLOSED_SHELL('',(#61,#62,#63,#64,#65,#66,#67,#68,#69,#70,#71,#72,#73,
#74,#75,#76,#77,#78,#79,#80));
#43=VERTEX_LOOP('',#208);
#44=FACE_OUTER_BOUND('',#135,.T.);
#45=PLANE('',#302);
#46=PLANE('',#304);
#47=CONICAL_SURFACE('',#296,12.1018926016406,29.5101445445225);
#48=CONICAL_SURFACE('',#305,11.49675,45.);
#49=CONICAL_SURFACE('',#307,0.,59.);
#50=CONICAL_SURFACE('',#311,5.225,79.9999999999997);
#51=CONICAL_SURFACE('',#315,6.42469266061754,65.0000000000002);
#52=CONICAL_SURFACE('',#317,6.22304248383843,5.99999999999999);
#53=CONICAL_SURFACE('',#319,7.365,45.0000000000001);
#54=CONICAL_SURFACE('',#327,8.78573769152476,1.99999999999997);
#55=CONICAL_SURFACE('',#328,8.86954753830495,47.0000000000001);
#56=TOROIDAL_SURFACE('',#294,12.09675,0.399999999999998);
#57=TOROIDAL_SURFACE('',#298,12.45,0.400000000000007);
#58=TOROIDAL_SURFACE('',#313,5.57945613713615,1.99999999999999);
#59=TOROIDAL_SURFACE('',#321,7.88573769152475,1.);
#60=TOROIDAL_SURFACE('',#325,7.88573769152475,1.);
#61=ADVANCED_FACE('FP_EH_SU1',(#85,#86),#81,.T.);
#62=ADVANCED_FACE('',(#87,#88),#56,.T.);
#63=ADVANCED_FACE('FP_EH_SU2',(#89,#90),#47,.T.);
#64=ADVANCED_FACE('',(#91,#92),#57,.F.);
#65=ADVANCED_FACE('FP_EH_SU3',(#93,#94),#82,.T.);
#66=ADVANCED_FACE('FP_EH_SU4',(#95,#96),#45,.T.);
#67=ADVANCED_FACE('',(#44),#46,.F.);
#68=ADVANCED_FACE('',(#97,#98),#48,.T.);
#69=ADVANCED_FACE('',(#99,#100),#49,.F.);
#70=ADVANCED_FACE('DCH3',(#101,#102),#83,.F.);
#71=ADVANCED_FACE('',(#103,#104),#50,.F.);
#72=ADVANCED_FACE('',(#105,#106),#58,.F.);
#73=ADVANCED_FACE('',(#107,#108),#51,.F.);
#74=ADVANCED_FACE('TSALN',(#109,#110),#52,.F.);
#75=ADVANCED_FACE('',(#111,#112),#53,.F.);
#76=ADVANCED_FACE('',(#113,#114),#59,.F.);
#77=ADVANCED_FACE('DCH2',(#115,#116),#84,.F.);
#78=ADVANCED_FACE('',(#117,#118),#60,.F.);
#79=ADVANCED_FACE('TSAN',(#119,#120),#54,.F.);
#80=ADVANCED_FACE('DCH4',(#121,#122),#55,.F.);
#81=CYLINDRICAL_SURFACE('',#292,12.49675);
#82=CYLINDRICAL_SURFACE('',#300,12.05);
#83=CYLINDRICAL_SURFACE('',#309,5.225);
#84=CYLINDRICAL_SURFACE('',#323,8.88573769152475);
#85=FACE_BOUND('',#123,.T.);
#86=FACE_BOUND('',#124,.T.);
#87=FACE_BOUND('',#125,.T.);
#88=FACE_BOUND('',#126,.T.);
#89=FACE_BOUND('',#127,.T.);
#90=FACE_BOUND('',#128,.T.);
#91=FACE_BOUND('',#129,.T.);
#92=FACE_BOUND('',#130,.T.);
#93=FACE_BOUND('',#131,.T.);
#94=FACE_BOUND('',#132,.T.);
#95=FACE_BOUND('',#133,.T.);
#96=FACE_BOUND('',#134,.T.);
#97=FACE_BOUND('',#136,.T.);
#98=FACE_BOUND('',#137,.T.);
#99=FACE_BOUND('',#138,.T.);
#100=FACE_BOUND('',#43,.T.);
#101=FACE_BOUND('',#139,.T.);
#102=FACE_BOUND('',#140,.T.);
#103=FACE_BOUND('',#141,.T.);
#104=FACE_BOUND('',#142,.T.);
#105=FACE_BOUND('',#143,.T.);
#106=FACE_BOUND('',#144,.T.);
#107=FACE_BOUND('',#145,.T.);
#108=FACE_BOUND('',#146,.T.);
#109=FACE_BOUND('',#147,.T.);
#110=FACE_BOUND('',#148,.T.);
#111=FACE_BOUND('',#149,.T.);
#112=FACE_BOUND('',#150,.T.);
#113=FACE_BOUND('',#151,.T.);
#114=FACE_BOUND('',#152,.T.);
#115=FACE_BOUND('',#153,.T.);
#116=FACE_BOUND('',#154,.T.);
#117=FACE_BOUND('',#155,.T.);
#118=FACE_BOUND('',#156,.T.);
#119=FACE_BOUND('',#157,.T.);
#120=FACE_BOUND('',#158,.T.);
#121=FACE_BOUND('',#159,.T.);
#122=FACE_BOUND('',#160,.T.);
#123=EDGE_LOOP('',(#161));
#124=EDGE_LOOP('',(#162));
#125=EDGE_LOOP('',(#163));
#126=EDGE_LOOP('',(#164));
#127=EDGE_LOOP('',(#165));
#128=EDGE_LOOP('',(#166));
#129=EDGE_LOOP('',(#167));
#130=EDGE_LOOP('',(#168));
#131=EDGE_LOOP('',(#169));
#132=EDGE_LOOP('',(#170));
#133=EDGE_LOOP('',(#171));
#134=EDGE_LOOP('',(#172));
#135=EDGE_LOOP('',(#173));
#136=EDGE_LOOP('',(#174));
#137=EDGE_LOOP('',(#175));
#138=EDGE_LOOP('',(#176));
#139=EDGE_LOOP('',(#177));
#140=EDGE_LOOP('',(#178));
#141=EDGE_LOOP('',(#179));
#142=EDGE_LOOP('',(#180));
#143=EDGE_LOOP('',(#181));
#144=EDGE_LOOP('',(#182));
#145=EDGE_LOOP('',(#183));
#146=EDGE_LOOP('',(#184));
#147=EDGE_LOOP('',(#185));
#148=EDGE_LOOP('',(#186));
#149=EDGE_LOOP('',(#187));
#150=EDGE_LOOP('',(#188));
#151=EDGE_LOOP('',(#189));
#152=EDGE_LOOP('',(#190));
#153=EDGE_LOOP('',(#191));
#154=EDGE_LOOP('',(#192));
#155=EDGE_LOOP('',(#193));
#156=EDGE_LOOP('',(#194));
#157=EDGE_LOOP('',(#195));
#158=EDGE_LOOP('',(#196));
#159=EDGE_LOOP('',(#197));
#160=EDGE_LOOP('',(#198));
#161=ORIENTED_EDGE('',*,*,#219,.F.);
#162=ORIENTED_EDGE('',*,*,#220,.T.);
#163=ORIENTED_EDGE('',*,*,#219,.T.);
#164=ORIENTED_EDGE('',*,*,#221,.F.);
#165=ORIENTED_EDGE('',*,*,#221,.T.);
#166=ORIENTED_EDGE('',*,*,#222,.F.);
#167=ORIENTED_EDGE('',*,*,#222,.T.);
#168=ORIENTED_EDGE('',*,*,#223,.F.);
#169=ORIENTED_EDGE('',*,*,#223,.T.);
#170=ORIENTED_EDGE('',*,*,#224,.F.);
#171=ORIENTED_EDGE('',*,*,#225,.F.);
#172=ORIENTED_EDGE('',*,*,#224,.T.);
#173=ORIENTED_EDGE('',*,*,#226,.F.);
#174=ORIENTED_EDGE('',*,*,#220,.F.);
#175=ORIENTED_EDGE('',*,*,#226,.T.);
#176=ORIENTED_EDGE('',*,*,#227,.T.);
#177=ORIENTED_EDGE('',*,*,#228,.T.);
#178=ORIENTED_EDGE('',*,*,#227,.F.);
#179=ORIENTED_EDGE('',*,*,#229,.T.);
#180=ORIENTED_EDGE('',*,*,#228,.F.);
#181=ORIENTED_EDGE('',*,*,#230,.T.);
#182=ORIENTED_EDGE('',*,*,#229,.F.);
#183=ORIENTED_EDGE('',*,*,#231,.T.);
#184=ORIENTED_EDGE('',*,*,#230,.F.);
#185=ORIENTED_EDGE('',*,*,#232,.T.);
#186=ORIENTED_EDGE('',*,*,#231,.F.);
#187=ORIENTED_EDGE('',*,*,#233,.T.);
#188=ORIENTED_EDGE('',*,*,#232,.F.);
#189=ORIENTED_EDGE('',*,*,#234,.T.);
#190=ORIENTED_EDGE('',*,*,#233,.F.);
#191=ORIENTED_EDGE('',*,*,#235,.T.);
#192=ORIENTED_EDGE('',*,*,#234,.F.);
#193=ORIENTED_EDGE('',*,*,#236,.T.);
#194=ORIENTED_EDGE('',*,*,#235,.F.);
#195=ORIENTED_EDGE('',*,*,#237,.T.);
#196=ORIENTED_EDGE('',*,*,#236,.F.);
#197=ORIENTED_EDGE('',*,*,#225,.T.);
#198=ORIENTED_EDGE('',*,*,#237,.F.);
#199=VERTEX_POINT('',#423);
#200=VERTEX_POINT('',#425);
#201=VERTEX_POINT('',#428);
#202=VERTEX_POINT('',#431);
#203=VERTEX_POINT('',#434);
#204=VERTEX_POINT('',#437);
#205=VERTEX_POINT('',#440);
#206=VERTEX_POINT('',#443);
#207=VERTEX_POINT('',#447);
#208=VERTEX_POINT('',#448);
#209=VERTEX_POINT('',#451);
#210=VERTEX_POINT('',#454);
#211=VERTEX_POINT('',#457);
#212=VERTEX_POINT('',#460);
#213=VERTEX_POINT('',#463);
#214=VERTEX_POINT('',#466);
#215=VERTEX_POINT('',#469);
#216=VERTEX_POINT('',#472);
#217=VERTEX_POINT('',#475);
#218=VERTEX_POINT('',#478);
#219=EDGE_CURVE('',#199,#199,#238,.T.);
#220=EDGE_CURVE('',#200,#200,#239,.T.);
#221=EDGE_CURVE('',#201,#201,#240,.T.);
#222=EDGE_CURVE('',#202,#202,#241,.T.);
#223=EDGE_CURVE('',#203,#203,#242,.T.);
#224=EDGE_CURVE('',#204,#204,#243,.T.);
#225=EDGE_CURVE('',#205,#205,#244,.T.);
#226=EDGE_CURVE('',#206,#206,#245,.T.);
#227=EDGE_CURVE('',#207,#207,#246,.T.);
#228=EDGE_CURVE('',#209,#209,#247,.T.);
#229=EDGE_CURVE('',#210,#210,#248,.T.);
#230=EDGE_CURVE('',#211,#211,#249,.T.);
#231=EDGE_CURVE('',#212,#212,#250,.T.);
#232=EDGE_CURVE('',#213,#213,#251,.T.);
#233=EDGE_CURVE('',#214,#214,#252,.T.);
#234=EDGE_CURVE('',#215,#215,#253,.T.);
#235=EDGE_CURVE('',#216,#216,#254,.T.);
#236=EDGE_CURVE('',#217,#217,#255,.T.);
#237=EDGE_CURVE('',#218,#218,#256,.T.);
#238=CIRCLE('',#290,12.49675);
#239=CIRCLE('',#291,12.49675);
#240=CIRCLE('',#293,12.4448573983594);
#241=CIRCLE('',#295,12.1018926016406);
#242=CIRCLE('',#297,12.05);
#243=CIRCLE('',#299,12.05);
#244=CIRCLE('',#301,9.51296876431976);
#245=CIRCLE('',#303,11.49675);
#246=CIRCLE('',#306,5.225);
#247=CIRCLE('',#308,5.225);
#248=CIRCLE('',#310,5.92675249247001);
#249=CIRCLE('',#312,6.42469266061754);
#250=CIRCLE('',#314,6.22304248383843);
#251=CIRCLE('',#316,7.365);
#252=CIRCLE('',#318,8.5928444727113);
#253=CIRCLE('',#320,8.88573769152476);
#254=CIRCLE('',#322,8.88573769152475);
#255=CIRCLE('',#324,8.78573769152476);
#256=CIRCLE('',#326,8.86954753830495);
#257=CURVE_STYLE('',#260,POSITIVE_LENGTH_MEASURE(0.18),#284);
#258=CURVE_STYLE('',#261,POSITIVE_LENGTH_MEASURE(0.18),#284);
#259=CURVE_STYLE('',#262,POSITIVE_LENGTH_MEASURE(0.18),#284);
#260=DRAUGHTING_PRE_DEFINED_CURVE_FONT('continuous');
#261=DRAUGHTING_PRE_DEFINED_CURVE_FONT('continuous');
#262=DRAUGHTING_PRE_DEFINED_CURVE_FONT('continuous');
#263=PRESENTATION_LAYER_ASSIGNMENT('1','Layer 1',(#416,#417,#418,#287,#288,
#289,#41));
#264=STYLED_ITEM('',(#271),#416);
#265=STYLED_ITEM('',(#272),#417);
#266=STYLED_ITEM('',(#273),#418);
#267=STYLED_ITEM('',(#274),#287);
#268=STYLED_ITEM('',(#275),#288);
#269=STYLED_ITEM('',(#276),#289);
#270=STYLED_ITEM('',(#277),#41);
#271=PRESENTATION_STYLE_ASSIGNMENT((#278));
#272=PRESENTATION_STYLE_ASSIGNMENT((#279));
#273=PRESENTATION_STYLE_ASSIGNMENT((#280));
#274=PRESENTATION_STYLE_ASSIGNMENT((#257));
#275=PRESENTATION_STYLE_ASSIGNMENT((#258));
#276=PRESENTATION_STYLE_ASSIGNMENT((#259));
#277=PRESENTATION_STYLE_ASSIGNMENT((#36));
#278=POINT_STYLE('',#281,POSITIVE_LENGTH_MEASURE(3.),#284);
#279=POINT_STYLE('',#282,POSITIVE_LENGTH_MEASURE(3.),#284);
#280=POINT_STYLE('',#283,POSITIVE_LENGTH_MEASURE(3.),#284);
#281=PRE_DEFINED_POINT_MARKER_SYMBOL('plus');
#282=PRE_DEFINED_POINT_MARKER_SYMBOL('plus');
#283=PRE_DEFINED_POINT_MARKER_SYMBOL('plus');
#284=COLOUR_RGB('Strong Stone',0.576470588235294,0.54508278019379,0.392156862745098);
#285=COLOUR_RGB('Medium Gray',0.490196078431373,0.490196078431373,0.490196078431373);
#286=AXIS2_PLACEMENT_3D('',#415,#329,#330);
#287=AXIS2_PLACEMENT_3D('PCS',#419,#331,#332);
#288=AXIS2_PLACEMENT_3D('MCS',#420,#333,#334);
#289=AXIS2_PLACEMENT_3D('CSW',#421,#335,#336);
#290=AXIS2_PLACEMENT_3D('',#422,#337,#338);
#291=AXIS2_PLACEMENT_3D('',#424,#339,#340);
#292=AXIS2_PLACEMENT_3D('',#426,#341,#342);
#293=AXIS2_PLACEMENT_3D('',#427,#343,#344);
#294=AXIS2_PLACEMENT_3D('',#429,#345,#346);
#295=AXIS2_PLACEMENT_3D('',#430,#347,#348);
#296=AXIS2_PLACEMENT_3D('',#432,#349,#350);
#297=AXIS2_PLACEMENT_3D('',#433,#351,#352);
#298=AXIS2_PLACEMENT_3D('',#435,#353,#354);
#299=AXIS2_PLACEMENT_3D('',#436,#355,#356);
#300=AXIS2_PLACEMENT_3D('',#438,#357,#358);
#301=AXIS2_PLACEMENT_3D('',#439,#359,#360);
#302=AXIS2_PLACEMENT_3D('',#441,#361,#362);
#303=AXIS2_PLACEMENT_3D('',#442,#363,#364);
#304=AXIS2_PLACEMENT_3D('',#444,#365,#366);
#305=AXIS2_PLACEMENT_3D('',#445,#367,#368);
#306=AXIS2_PLACEMENT_3D('',#446,#369,#370);
#307=AXIS2_PLACEMENT_3D('',#449,#371,#372);
#308=AXIS2_PLACEMENT_3D('',#450,#373,#374);
#309=AXIS2_PLACEMENT_3D('',#452,#375,#376);
#310=AXIS2_PLACEMENT_3D('',#453,#377,#378);
#311=AXIS2_PLACEMENT_3D('',#455,#379,#380);
#312=AXIS2_PLACEMENT_3D('',#456,#381,#382);
#313=AXIS2_PLACEMENT_3D('',#458,#383,#384);
#314=AXIS2_PLACEMENT_3D('',#459,#385,#386);
#315=AXIS2_PLACEMENT_3D('',#461,#387,#388);
#316=AXIS2_PLACEMENT_3D('',#462,#389,#390);
#317=AXIS2_PLACEMENT_3D('',#464,#391,#392);
#318=AXIS2_PLACEMENT_3D('',#465,#393,#394);
#319=AXIS2_PLACEMENT_3D('',#467,#395,#396);
#320=AXIS2_PLACEMENT_3D('',#468,#397,#398);
#321=AXIS2_PLACEMENT_3D('',#470,#399,#400);
#322=AXIS2_PLACEMENT_3D('',#471,#401,#402);
#323=AXIS2_PLACEMENT_3D('',#473,#403,#404);
#324=AXIS2_PLACEMENT_3D('',#474,#405,#406);
#325=AXIS2_PLACEMENT_3D('',#476,#407,#408);
#326=AXIS2_PLACEMENT_3D('',#477,#409,#410);
#327=AXIS2_PLACEMENT_3D('',#479,#411,#412);
#328=AXIS2_PLACEMENT_3D('',#480,#413,#414);
#329=DIRECTION('',(0.,0.,1.));
#330=DIRECTION('',(1.,0.,0.));
#331=DIRECTION('',(0.,0.,1.));
#332=DIRECTION('',(1.,0.,0.));
#333=DIRECTION('',(0.,0.,1.));
#334=DIRECTION('',(1.,0.,0.));
#335=DIRECTION('',(0.,0.,1.));
#336=DIRECTION('',(1.,0.,0.));
#337=DIRECTION('',(0.,0.,-1.));
#338=DIRECTION('',(1.,0.,0.));
#339=DIRECTION('',(0.,0.,-1.));
#340=DIRECTION('',(1.,0.,0.));
#341=DIRECTION('',(0.,0.,-1.));
#342=DIRECTION('',(1.,0.,0.));
#343=DIRECTION('',(0.,0.,-1.));
#344=DIRECTION('',(1.,0.,0.));
#345=DIRECTION('',(0.,0.,-1.));
#346=DIRECTION('',(1.,0.,0.));
#347=DIRECTION('',(0.,0.,-1.));
#348=DIRECTION('',(1.,0.,0.));
#349=DIRECTION('',(0.,0.,1.));
#350=DIRECTION('',(-1.,0.,0.));
#351=DIRECTION('',(0.,0.,-1.));
#352=DIRECTION('',(1.,0.,0.));
#353=DIRECTION('',(0.,0.,-1.));
#354=DIRECTION('',(1.,0.,0.));
#355=DIRECTION('',(0.,0.,-1.));
#356=DIRECTION('',(1.,0.,0.));
#357=DIRECTION('',(0.,0.,-1.));
#358=DIRECTION('',(1.,0.,0.));
#359=DIRECTION('',(0.,0.,-1.));
#360=DIRECTION('',(1.,0.,0.));
#361=DIRECTION('',(0.,0.,-1.));
#362=DIRECTION('',(1.,0.,0.));
#363=DIRECTION('',(0.,0.,-1.));
#364=DIRECTION('',(1.,0.,0.));
#365=DIRECTION('',(0.,0.,-1.));
#366=DIRECTION('',(1.,0.,0.));
#367=DIRECTION('',(0.,0.,-1.));
#368=DIRECTION('',(1.,0.,0.));
#369=DIRECTION('',(0.,0.,-1.));
#370=DIRECTION('',(1.,0.,0.));
#371=DIRECTION('',(0.,0.,-1.));
#372=DIRECTION('',(1.,0.,0.));
#373=DIRECTION('',(0.,0.,-1.));
#374=DIRECTION('',(1.,0.,0.));
#375=DIRECTION('',(0.,0.,-1.));
#376=DIRECTION('',(1.,0.,0.));
#377=DIRECTION('',(0.,0.,-1.));
#378=DIRECTION('',(1.,0.,0.));
#379=DIRECTION('',(0.,0.,-1.));
#380=DIRECTION('',(1.,0.,9.77910412076242E-18));
#381=DIRECTION('',(0.,0.,-1.));
#382=DIRECTION('',(1.,0.,0.));
#383=DIRECTION('',(0.,0.,-1.));
#384=DIRECTION('',(1.,0.,0.));
#385=DIRECTION('',(0.,0.,-1.));
#386=DIRECTION('',(1.,0.,0.));
#387=DIRECTION('',(0.,0.,1.));
#388=DIRECTION('',(-1.,0.,-1.29039786507767E-17));
#389=DIRECTION('',(0.,0.,-1.));
#390=DIRECTION('',(1.,0.,0.));
#391=DIRECTION('',(0.,0.,-1.));
#392=DIRECTION('',(1.,0.,4.98630276006186E-16));
#393=DIRECTION('',(0.,0.,-1.));
#394=DIRECTION('',(1.,0.,0.));
#395=DIRECTION('',(0.,0.,-1.));
#396=DIRECTION('',(1.,0.,-5.51053006916635E-17));
#397=DIRECTION('',(0.,0.,-1.));
#398=DIRECTION('',(1.,0.,0.));
#399=DIRECTION('',(0.,0.,-1.));
#400=DIRECTION('',(1.,0.,0.));
#401=DIRECTION('',(0.,0.,-1.));
#402=DIRECTION('',(1.,0.,0.));
#403=DIRECTION('',(0.,0.,-1.));
#404=DIRECTION('',(1.,0.,0.));
#405=DIRECTION('',(0.,0.,-1.));
#406=DIRECTION('',(1.,0.,0.));
#407=DIRECTION('',(0.,0.,-1.));
#408=DIRECTION('',(1.,0.,0.));
#409=DIRECTION('',(0.,0.,-1.));
#410=DIRECTION('',(1.,0.,0.));
#411=DIRECTION('',(0.,0.,-1.));
#412=DIRECTION('',(1.,0.,-1.27008893660814E-15));
#413=DIRECTION('',(0.,0.,-1.));
#414=DIRECTION('',(1.,0.,0.));
#415=CARTESIAN_POINT('',(0.,0.,0.));
#416=CARTESIAN_POINT('',(0.,0.,0.));
#417=CARTESIAN_POINT('',(0.,0.,-56.));
#418=CARTESIAN_POINT('',(0.,0.,-200.));
#419=CARTESIAN_POINT('',(0.,0.,0.));
#420=CARTESIAN_POINT('',(0.,0.,-56.));
#421=CARTESIAN_POINT('',(0.,0.,-200.));
#422=CARTESIAN_POINT('',(0.,0.,-79.));
#423=CARTESIAN_POINT('',(12.49675,0.,-79.));
#424=CARTESIAN_POINT('',(0.,0.,-1.));
#425=CARTESIAN_POINT('',(12.49675,0.,-1.));
#426=CARTESIAN_POINT('',(0.,0.,70.5183697733042));
#427=CARTESIAN_POINT('',(0.,0.,-79.1970310615296));
#428=CARTESIAN_POINT('',(12.4448573983594,0.,-79.1970310615296));
#429=CARTESIAN_POINT('',(0.,0.,-79.));
#430=CARTESIAN_POINT('',(0.,0.,-79.8029689384705));
#431=CARTESIAN_POINT('',(12.1018926016406,0.,-79.8029689384705));
#432=CARTESIAN_POINT('',(0.,0.,-79.8029689384705));
#433=CARTESIAN_POINT('',(0.,0.,-80.));
#434=CARTESIAN_POINT('',(12.05,0.,-80.));
#435=CARTESIAN_POINT('',(0.,0.,-80.));
#436=CARTESIAN_POINT('',(0.,0.,-200.));
#437=CARTESIAN_POINT('',(12.05,0.,-200.));
#438=CARTESIAN_POINT('',(0.,0.,70.5183697733042));
#439=CARTESIAN_POINT('',(0.,0.,-200.));
#440=CARTESIAN_POINT('',(9.51296876431976,0.,-200.));
#441=CARTESIAN_POINT('',(2.66453525910038E-14,0.,-200.));
#442=CARTESIAN_POINT('',(0.,0.,0.));
#443=CARTESIAN_POINT('',(11.49675,0.,0.));
#444=CARTESIAN_POINT('',(0.,0.,0.));
#445=CARTESIAN_POINT('',(0.,0.,0.));
#446=CARTESIAN_POINT('',(0.,0.,-174.));
#447=CARTESIAN_POINT('',(5.225,0.,-174.));
#448=CARTESIAN_POINT('',(0.,0.,-170.860503265581));
#449=CARTESIAN_POINT('',(0.,0.,-170.860503265581));
#450=CARTESIAN_POINT('',(0.,0.,-178.));
#451=CARTESIAN_POINT('',(5.225,0.,-178.));
#452=CARTESIAN_POINT('',(0.,0.,-200.));
#453=CARTESIAN_POINT('',(0.,0.,-178.123737898202));
#454=CARTESIAN_POINT('',(5.92675249247001,0.,-178.123737898202));
#455=CARTESIAN_POINT('',(0.,0.,-178.));
#456=CARTESIAN_POINT('',(0.,0.,-181.9059689783));
#457=CARTESIAN_POINT('',(6.42469266061754,0.,-181.9059689783));
#458=CARTESIAN_POINT('',(0.,0.,-180.093353404226));
#459=CARTESIAN_POINT('',(0.,0.,-182.));
#460=CARTESIAN_POINT('',(6.22304248383843,0.,-182.));
#461=CARTESIAN_POINT('',(0.,0.,-181.9059689783));
#462=CARTESIAN_POINT('',(0.,0.,-192.865));
#463=CARTESIAN_POINT('',(7.365,0.,-192.865));
#464=CARTESIAN_POINT('',(0.,0.,-182.));
#465=CARTESIAN_POINT('',(0.,0.,-194.092844472711));
#466=CARTESIAN_POINT('',(8.5928444727113,0.,-194.092844472711));
#467=CARTESIAN_POINT('',(0.,0.,-192.865));
#468=CARTESIAN_POINT('',(0.,0.,-194.799951253898));
#469=CARTESIAN_POINT('',(8.88573769152476,0.,-194.799951253898));
#470=CARTESIAN_POINT('',(0.,0.,-194.799951253898));
#471=CARTESIAN_POINT('',(0.,0.,-196.564110105646));
#472=CARTESIAN_POINT('',(8.88573769152475,0.,-196.564110105646));
#473=CARTESIAN_POINT('',(0.,0.,-200.));
#474=CARTESIAN_POINT('',(0.,0.,-197.));
#475=CARTESIAN_POINT('',(8.78573769152476,0.,-197.));
#476=CARTESIAN_POINT('',(0.,0.,-196.564110105646));
#477=CARTESIAN_POINT('',(0.,0.,-199.4));
#478=CARTESIAN_POINT('',(8.86954753830495,0.,-199.4));
#479=CARTESIAN_POINT('',(0.,0.,-197.));
#480=CARTESIAN_POINT('',(0.,0.,-199.4));
#481=MECHANICAL_DESIGN_GEOMETRIC_PRESENTATION_REPRESENTATION('',(#264,#265,
#266,#267,#268,#269,#270),#482);
#482=(
GEOMETRIC_REPRESENTATION_CONTEXT(3)
GLOBAL_UNCERTAINTY_ASSIGNED_CONTEXT((#483))
GLOBAL_UNIT_ASSIGNED_CONTEXT((#489,#485,#484))
REPRESENTATION_CONTEXT('XE25250E4-200-00','TOP_LEVEL_ASSEMBLY_PART')
);
#483=UNCERTAINTY_MEASURE_WITH_UNIT(LENGTH_MEASURE(2.E-5),#489,
'DISTANCE_ACCURACY_VALUE','Maximum Tolerance applied to model');
#484=(
NAMED_UNIT(*)
SI_UNIT($,.STERADIAN.)
SOLID_ANGLE_UNIT()
);
#485=(
CONVERSION_BASED_UNIT('DEGREE',#487)
NAMED_UNIT(#486)
PLANE_ANGLE_UNIT()
);
#486=DIMENSIONAL_EXPONENTS(0.,0.,0.,0.,0.,0.,0.);
#487=PLANE_ANGLE_MEASURE_WITH_UNIT(PLANE_ANGLE_MEASURE(0.0174532925),#488);
#488=(
NAMED_UNIT(*)
PLANE_ANGLE_UNIT()
SI_UNIT($,.RADIAN.)
);
#489=(
LENGTH_UNIT()
NAMED_UNIT(*)
SI_UNIT(.MILLI.,.METRE.)
);
ENDSEC;
END-ISO-10303-21;
