ISO-10303-21;
HEADER;
/* Generated by software containing ST-Developer
 * from STEP Tools, Inc. (www.steptools.com) 
 */
/* OPTION: using custom schema-name function */

FILE_DESCRIPTION(
/* description */ (''),
/* implementation_level */ '2;1');

FILE_NAME(
/* name */ 'XE20200E5-180-00.0E_Basic.stp',
/* time_stamp */ '2022-07-27T09:46:00+05:00',
/* author */ (''),
/* organization */ (''),
/* preprocessor_version */ 'ST-DEVELOPER v16.7',
/* originating_system */ 'SIEMENS PLM Software NX 12.0',
/* authorisation */ '');

FILE_SCHEMA (('AUTOMOTIVE_DESIGN { 1 0 10303 214 3 1 1 1 }'));
ENDSEC;

DATA;
#10=CONSTRUCTIVE_GEOMETRY_REPRESENTATION_RELATIONSHIP(
'supplemental geometry','',#34,#11);
#11=CONSTRUCTIVE_GEOMETRY_REPRESENTATION('supplemental geometry',(#309,
#310,#311),#522);
#12=GEOMETRICALLY_BOUNDED_WIREFRAME_SHAPE_REPRESENTATION(
'inpu32D04B72ntst-None',(#35),#522);
#13=PROPERTY_DEFINITION_REPRESENTATION(#17,#15);
#14=PROPERTY_DEFINITION_REPRESENTATION(#18,#16);
#15=REPRESENTATION('',(#19),#522);
#16=REPRESENTATION('',(#20),#522);
#17=PROPERTY_DEFINITION('pmi validation property','',#25);
#18=PROPERTY_DEFINITION('pmi validation property','',#25);
#19=VALUE_REPRESENTATION_ITEM('number of annotations',COUNT_MEASURE(0.));
#20=VALUE_REPRESENTATION_ITEM('number of views',COUNT_MEASURE(0.));
#21=SHAPE_REPRESENTATION_RELATIONSHIP('None',
'relationship between inpu32D04B72ntst-None and inpu32D04B72ntst-None',
#34,#23);
#22=SHAPE_REPRESENTATION_RELATIONSHIP('None',
'relationship between inpu32D04B72ntst-None and inpu32D04B72ntst-None',
#34,#12);
#23=ADVANCED_BREP_SHAPE_REPRESENTATION('inpu32D04B72ntst-None',(#41),#522);
#24=SHAPE_DEFINITION_REPRESENTATION(#25,#34);
#25=PRODUCT_DEFINITION_SHAPE('','',#26);
#26=PRODUCT_DEFINITION(' ','',#28,#27);
#27=PRODUCT_DEFINITION_CONTEXT('part definition',#33,'design');
#28=PRODUCT_DEFINITION_FORMATION_WITH_SPECIFIED_SOURCE(' ',' ',#30,
 .NOT_KNOWN.);
#29=PRODUCT_RELATED_PRODUCT_CATEGORY('part','',(#30));
#30=PRODUCT('inpu32D04B72ntst','inpu32D04B72ntst',' ',(#31));
#31=PRODUCT_CONTEXT(' ',#33,'mechanical');
#32=APPLICATION_PROTOCOL_DEFINITION('international standard',
'automotive_design',2010,#33);
#33=APPLICATION_CONTEXT(
'core data for automotive mechanical design processes');
#34=SHAPE_REPRESENTATION('inpu32D04B72ntst-None',(#308),#522);
#35=GEOMETRIC_CURVE_SET('None',(#450,#451,#452));
#36=SURFACE_STYLE_USAGE(.BOTH.,#37);
#37=SURFACE_SIDE_STYLE('',(#38));
#38=SURFACE_STYLE_FILL_AREA(#39);
#39=FILL_AREA_STYLE('',(#40));
#40=FILL_AREA_STYLE_COLOUR('',#307);
#41=MANIFOLD_SOLID_BREP('NOCUT',#42);
#42=CLOSED_SHELL('',(#63,#64,#65,#66,#67,#68,#69,#70,#71,#72,#73,#74,#75,
#76,#77,#78,#79,#80,#81,#82,#83,#84));
#43=VERTEX_LOOP('',#224);
#44=FACE_OUTER_BOUND('',#143,.T.);
#45=PLANE('',#324);
#46=PLANE('',#326);
#47=CONICAL_SURFACE('',#318,9.64028605206308,25.9357747951532);
#48=CONICAL_SURFACE('',#327,8.99675000000001,45.);
#49=CONICAL_SURFACE('',#329,0.,59.);
#50=CONICAL_SURFACE('',#335,4.95554072893323,80.0000000000007);
#51=CONICAL_SURFACE('',#339,5.77120549174436,69.9999999999998);
#52=CONICAL_SURFACE('',#343,5.28680918566302,5.99999999999999);
#53=CONICAL_SURFACE('',#345,6.2153,70.0000000000001);
#54=CONICAL_SURFACE('',#353,7.25769807627063,2.);
#55=CONICAL_SURFACE('',#354,7.32404753830495,46.9999999999999);
#56=TOROIDAL_SURFACE('',#316,9.59674999999999,0.400000000000022);
#57=TOROIDAL_SURFACE('',#320,9.99999999999999,0.399999999999971);
#58=TOROIDAL_SURFACE('',#333,5.025,0.4);
#59=TOROIDAL_SURFACE('',#337,5.32657930542099,1.3);
#60=TOROIDAL_SURFACE('',#341,5.68461794381033,0.4);
#61=TOROIDAL_SURFACE('',#347,6.85769807627063,0.5);
#62=TOROIDAL_SURFACE('',#351,6.85769807627063,0.500000000000001);
#63=ADVANCED_FACE('FP_EH_SU1',(#89,#90),#85,.T.);
#64=ADVANCED_FACE('',(#91,#92),#56,.T.);
#65=ADVANCED_FACE('FP_EH_SU2',(#93,#94),#47,.T.);
#66=ADVANCED_FACE('',(#95,#96),#57,.F.);
#67=ADVANCED_FACE('FP_EH_SU3',(#97,#98),#86,.T.);
#68=ADVANCED_FACE('FP_EH_SU4',(#99,#100),#45,.T.);
#69=ADVANCED_FACE('',(#44),#46,.F.);
#70=ADVANCED_FACE('',(#101,#102),#48,.T.);
#71=ADVANCED_FACE('',(#103,#104),#49,.F.);
#72=ADVANCED_FACE('DCH3',(#105,#106),#87,.F.);
#73=ADVANCED_FACE('',(#107,#108),#58,.T.);
#74=ADVANCED_FACE('',(#109,#110),#50,.F.);
#75=ADVANCED_FACE('',(#111,#112),#59,.F.);
#76=ADVANCED_FACE('',(#113,#114),#51,.F.);
#77=ADVANCED_FACE('',(#115,#116),#60,.T.);
#78=ADVANCED_FACE('TSALN',(#117,#118),#52,.F.);
#79=ADVANCED_FACE('',(#119,#120),#53,.F.);
#80=ADVANCED_FACE('',(#121,#122),#61,.F.);
#81=ADVANCED_FACE('DCH2',(#123,#124),#88,.F.);
#82=ADVANCED_FACE('',(#125,#126),#62,.F.);
#83=ADVANCED_FACE('TSAN',(#127,#128),#54,.F.);
#84=ADVANCED_FACE('DCH4',(#129,#130),#55,.F.);
#85=CYLINDRICAL_SURFACE('',#314,9.99675);
#86=CYLINDRICAL_SURFACE('',#322,9.6);
#87=CYLINDRICAL_SURFACE('',#331,4.625);
#88=CYLINDRICAL_SURFACE('',#349,7.35769807627063);
#89=FACE_BOUND('',#131,.T.);
#90=FACE_BOUND('',#132,.T.);
#91=FACE_BOUND('',#133,.T.);
#92=FACE_BOUND('',#134,.T.);
#93=FACE_BOUND('',#135,.T.);
#94=FACE_BOUND('',#136,.T.);
#95=FACE_BOUND('',#137,.T.);
#96=FACE_BOUND('',#138,.T.);
#97=FACE_BOUND('',#139,.T.);
#98=FACE_BOUND('',#140,.T.);
#99=FACE_BOUND('',#141,.T.);
#100=FACE_BOUND('',#142,.T.);
#101=FACE_BOUND('',#144,.T.);
#102=FACE_BOUND('',#145,.T.);
#103=FACE_BOUND('',#146,.T.);
#104=FACE_BOUND('',#43,.T.);
#105=FACE_BOUND('',#147,.T.);
#106=FACE_BOUND('',#148,.T.);
#107=FACE_BOUND('',#149,.T.);
#108=FACE_BOUND('',#150,.T.);
#109=FACE_BOUND('',#151,.T.);
#110=FACE_BOUND('',#152,.T.);
#111=FACE_BOUND('',#153,.T.);
#112=FACE_BOUND('',#154,.T.);
#113=FACE_BOUND('',#155,.T.);
#114=FACE_BOUND('',#156,.T.);
#115=FACE_BOUND('',#157,.T.);
#116=FACE_BOUND('',#158,.T.);
#117=FACE_BOUND('',#159,.T.);
#118=FACE_BOUND('',#160,.T.);
#119=FACE_BOUND('',#161,.T.);
#120=FACE_BOUND('',#162,.T.);
#121=FACE_BOUND('',#163,.T.);
#122=FACE_BOUND('',#164,.T.);
#123=FACE_BOUND('',#165,.T.);
#124=FACE_BOUND('',#166,.T.);
#125=FACE_BOUND('',#167,.T.);
#126=FACE_BOUND('',#168,.T.);
#127=FACE_BOUND('',#169,.T.);
#128=FACE_BOUND('',#170,.T.);
#129=FACE_BOUND('',#171,.T.);
#130=FACE_BOUND('',#172,.T.);
#131=EDGE_LOOP('',(#173));
#132=EDGE_LOOP('',(#174));
#133=EDGE_LOOP('',(#175));
#134=EDGE_LOOP('',(#176));
#135=EDGE_LOOP('',(#177));
#136=EDGE_LOOP('',(#178));
#137=EDGE_LOOP('',(#179));
#138=EDGE_LOOP('',(#180));
#139=EDGE_LOOP('',(#181));
#140=EDGE_LOOP('',(#182));
#141=EDGE_LOOP('',(#183));
#142=EDGE_LOOP('',(#184));
#143=EDGE_LOOP('',(#185));
#144=EDGE_LOOP('',(#186));
#145=EDGE_LOOP('',(#187));
#146=EDGE_LOOP('',(#188));
#147=EDGE_LOOP('',(#189));
#148=EDGE_LOOP('',(#190));
#149=EDGE_LOOP('',(#191));
#150=EDGE_LOOP('',(#192));
#151=EDGE_LOOP('',(#193));
#152=EDGE_LOOP('',(#194));
#153=EDGE_LOOP('',(#195));
#154=EDGE_LOOP('',(#196));
#155=EDGE_LOOP('',(#197));
#156=EDGE_LOOP('',(#198));
#157=EDGE_LOOP('',(#199));
#158=EDGE_LOOP('',(#200));
#159=EDGE_LOOP('',(#201));
#160=EDGE_LOOP('',(#202));
#161=EDGE_LOOP('',(#203));
#162=EDGE_LOOP('',(#204));
#163=EDGE_LOOP('',(#205));
#164=EDGE_LOOP('',(#206));
#165=EDGE_LOOP('',(#207));
#166=EDGE_LOOP('',(#208));
#167=EDGE_LOOP('',(#209));
#168=EDGE_LOOP('',(#210));
#169=EDGE_LOOP('',(#211));
#170=EDGE_LOOP('',(#212));
#171=EDGE_LOOP('',(#213));
#172=EDGE_LOOP('',(#214));
#173=ORIENTED_EDGE('',*,*,#237,.F.);
#174=ORIENTED_EDGE('',*,*,#238,.T.);
#175=ORIENTED_EDGE('',*,*,#237,.T.);
#176=ORIENTED_EDGE('',*,*,#239,.F.);
#177=ORIENTED_EDGE('',*,*,#239,.T.);
#178=ORIENTED_EDGE('',*,*,#240,.F.);
#179=ORIENTED_EDGE('',*,*,#240,.T.);
#180=ORIENTED_EDGE('',*,*,#241,.F.);
#181=ORIENTED_EDGE('',*,*,#241,.T.);
#182=ORIENTED_EDGE('',*,*,#242,.F.);
#183=ORIENTED_EDGE('',*,*,#243,.F.);
#184=ORIENTED_EDGE('',*,*,#242,.T.);
#185=ORIENTED_EDGE('',*,*,#244,.F.);
#186=ORIENTED_EDGE('',*,*,#238,.F.);
#187=ORIENTED_EDGE('',*,*,#244,.T.);
#188=ORIENTED_EDGE('',*,*,#245,.T.);
#189=ORIENTED_EDGE('',*,*,#246,.T.);
#190=ORIENTED_EDGE('',*,*,#245,.F.);
#191=ORIENTED_EDGE('',*,*,#247,.T.);
#192=ORIENTED_EDGE('',*,*,#246,.F.);
#193=ORIENTED_EDGE('',*,*,#248,.T.);
#194=ORIENTED_EDGE('',*,*,#247,.F.);
#195=ORIENTED_EDGE('',*,*,#249,.T.);
#196=ORIENTED_EDGE('',*,*,#248,.F.);
#197=ORIENTED_EDGE('',*,*,#250,.T.);
#198=ORIENTED_EDGE('',*,*,#249,.F.);
#199=ORIENTED_EDGE('',*,*,#251,.T.);
#200=ORIENTED_EDGE('',*,*,#250,.F.);
#201=ORIENTED_EDGE('',*,*,#252,.T.);
#202=ORIENTED_EDGE('',*,*,#251,.F.);
#203=ORIENTED_EDGE('',*,*,#253,.T.);
#204=ORIENTED_EDGE('',*,*,#252,.F.);
#205=ORIENTED_EDGE('',*,*,#254,.T.);
#206=ORIENTED_EDGE('',*,*,#253,.F.);
#207=ORIENTED_EDGE('',*,*,#255,.T.);
#208=ORIENTED_EDGE('',*,*,#254,.F.);
#209=ORIENTED_EDGE('',*,*,#256,.T.);
#210=ORIENTED_EDGE('',*,*,#255,.F.);
#211=ORIENTED_EDGE('',*,*,#257,.T.);
#212=ORIENTED_EDGE('',*,*,#256,.F.);
#213=ORIENTED_EDGE('',*,*,#243,.T.);
#214=ORIENTED_EDGE('',*,*,#257,.F.);
#215=VERTEX_POINT('',#457);
#216=VERTEX_POINT('',#459);
#217=VERTEX_POINT('',#462);
#218=VERTEX_POINT('',#465);
#219=VERTEX_POINT('',#468);
#220=VERTEX_POINT('',#471);
#221=VERTEX_POINT('',#474);
#222=VERTEX_POINT('',#477);
#223=VERTEX_POINT('',#481);
#224=VERTEX_POINT('',#482);
#225=VERTEX_POINT('',#485);
#226=VERTEX_POINT('',#488);
#227=VERTEX_POINT('',#491);
#228=VERTEX_POINT('',#494);
#229=VERTEX_POINT('',#497);
#230=VERTEX_POINT('',#500);
#231=VERTEX_POINT('',#503);
#232=VERTEX_POINT('',#506);
#233=VERTEX_POINT('',#509);
#234=VERTEX_POINT('',#512);
#235=VERTEX_POINT('',#515);
#236=VERTEX_POINT('',#518);
#237=EDGE_CURVE('',#215,#215,#258,.T.);
#238=EDGE_CURVE('',#216,#216,#259,.T.);
#239=EDGE_CURVE('',#217,#217,#260,.T.);
#240=EDGE_CURVE('',#218,#218,#261,.T.);
#241=EDGE_CURVE('',#219,#219,#262,.T.);
#242=EDGE_CURVE('',#220,#220,#263,.T.);
#243=EDGE_CURVE('',#221,#221,#264,.T.);
#244=EDGE_CURVE('',#222,#222,#265,.T.);
#245=EDGE_CURVE('',#223,#223,#266,.T.);
#246=EDGE_CURVE('',#225,#225,#267,.T.);
#247=EDGE_CURVE('',#226,#226,#268,.T.);
#248=EDGE_CURVE('',#227,#227,#269,.T.);
#249=EDGE_CURVE('',#228,#228,#270,.T.);
#250=EDGE_CURVE('',#229,#229,#271,.T.);
#251=EDGE_CURVE('',#230,#230,#272,.T.);
#252=EDGE_CURVE('',#231,#231,#273,.T.);
#253=EDGE_CURVE('',#232,#232,#274,.T.);
#254=EDGE_CURVE('',#233,#233,#275,.T.);
#255=EDGE_CURVE('',#234,#234,#276,.T.);
#256=EDGE_CURVE('',#235,#235,#277,.T.);
#257=EDGE_CURVE('',#236,#236,#278,.T.);
#258=CIRCLE('',#312,9.99675000000001);
#259=CIRCLE('',#313,9.99675000000001);
#260=CIRCLE('',#315,9.95646394793695);
#261=CIRCLE('',#317,9.64028605206308);
#262=CIRCLE('',#319,9.59999999999999);
#263=CIRCLE('',#321,9.6);
#264=CIRCLE('',#323,7.96746876431976);
#265=CIRCLE('',#325,8.99675000000001);
#266=CIRCLE('',#328,4.625);
#267=CIRCLE('',#330,4.625);
#268=CIRCLE('',#332,4.95554072893323);
#269=CIRCLE('',#334,5.552321936388);
#270=CIRCLE('',#336,5.77120549174436);
#271=CIRCLE('',#338,5.54780988648006);
#272=CIRCLE('',#340,5.28680918566302);
#273=CIRCLE('',#342,6.2153);
#274=CIRCLE('',#344,7.02870814793346);
#275=CIRCLE('',#346,7.35769807627063);
#276=CIRCLE('',#348,7.35769807627063);
#277=CIRCLE('',#350,7.25769807627063);
#278=CIRCLE('',#352,7.32404753830495);
#279=CURVE_STYLE('',#282,POSITIVE_LENGTH_MEASURE(0.18),#306);
#280=CURVE_STYLE('',#283,POSITIVE_LENGTH_MEASURE(0.18),#306);
#281=CURVE_STYLE('',#284,POSITIVE_LENGTH_MEASURE(0.18),#306);
#282=DRAUGHTING_PRE_DEFINED_CURVE_FONT('continuous');
#283=DRAUGHTING_PRE_DEFINED_CURVE_FONT('continuous');
#284=DRAUGHTING_PRE_DEFINED_CURVE_FONT('continuous');
#285=PRESENTATION_LAYER_ASSIGNMENT('1','Layer 1',(#450,#451,#452,#309,#310,
#311,#41));
#286=STYLED_ITEM('',(#293),#450);
#287=STYLED_ITEM('',(#294),#451);
#288=STYLED_ITEM('',(#295),#452);
#289=STYLED_ITEM('',(#296),#309);
#290=STYLED_ITEM('',(#297),#310);
#291=STYLED_ITEM('',(#298),#311);
#292=STYLED_ITEM('',(#299),#41);
#293=PRESENTATION_STYLE_ASSIGNMENT((#300));
#294=PRESENTATION_STYLE_ASSIGNMENT((#301));
#295=PRESENTATION_STYLE_ASSIGNMENT((#302));
#296=PRESENTATION_STYLE_ASSIGNMENT((#279));
#297=PRESENTATION_STYLE_ASSIGNMENT((#280));
#298=PRESENTATION_STYLE_ASSIGNMENT((#281));
#299=PRESENTATION_STYLE_ASSIGNMENT((#36));
#300=POINT_STYLE('',#303,POSITIVE_LENGTH_MEASURE(3.),#306);
#301=POINT_STYLE('',#304,POSITIVE_LENGTH_MEASURE(3.),#306);
#302=POINT_STYLE('',#305,POSITIVE_LENGTH_MEASURE(3.),#306);
#303=PRE_DEFINED_POINT_MARKER_SYMBOL('plus');
#304=PRE_DEFINED_POINT_MARKER_SYMBOL('plus');
#305=PRE_DEFINED_POINT_MARKER_SYMBOL('plus');
#306=COLOUR_RGB('Strong Stone',0.576470588235294,0.54508278019379,0.392156862745098);
#307=COLOUR_RGB('Medium Gray',0.490196078431373,0.490196078431373,0.490196078431373);
#308=AXIS2_PLACEMENT_3D('',#449,#355,#356);
#309=AXIS2_PLACEMENT_3D('PCS',#453,#357,#358);
#310=AXIS2_PLACEMENT_3D('MCS',#454,#359,#360);
#311=AXIS2_PLACEMENT_3D('CSW',#455,#361,#362);
#312=AXIS2_PLACEMENT_3D('',#456,#363,#364);
#313=AXIS2_PLACEMENT_3D('',#458,#365,#366);
#314=AXIS2_PLACEMENT_3D('',#460,#367,#368);
#315=AXIS2_PLACEMENT_3D('',#461,#369,#370);
#316=AXIS2_PLACEMENT_3D('',#463,#371,#372);
#317=AXIS2_PLACEMENT_3D('',#464,#373,#374);
#318=AXIS2_PLACEMENT_3D('',#466,#375,#376);
#319=AXIS2_PLACEMENT_3D('',#467,#377,#378);
#320=AXIS2_PLACEMENT_3D('',#469,#379,#380);
#321=AXIS2_PLACEMENT_3D('',#470,#381,#382);
#322=AXIS2_PLACEMENT_3D('',#472,#383,#384);
#323=AXIS2_PLACEMENT_3D('',#473,#385,#386);
#324=AXIS2_PLACEMENT_3D('',#475,#387,#388);
#325=AXIS2_PLACEMENT_3D('',#476,#389,#390);
#326=AXIS2_PLACEMENT_3D('',#478,#391,#392);
#327=AXIS2_PLACEMENT_3D('',#479,#393,#394);
#328=AXIS2_PLACEMENT_3D('',#480,#395,#396);
#329=AXIS2_PLACEMENT_3D('',#483,#397,#398);
#330=AXIS2_PLACEMENT_3D('',#484,#399,#400);
#331=AXIS2_PLACEMENT_3D('',#486,#401,#402);
#332=AXIS2_PLACEMENT_3D('',#487,#403,#404);
#333=AXIS2_PLACEMENT_3D('',#489,#405,#406);
#334=AXIS2_PLACEMENT_3D('',#490,#407,#408);
#335=AXIS2_PLACEMENT_3D('',#492,#409,#410);
#336=AXIS2_PLACEMENT_3D('',#493,#411,#412);
#337=AXIS2_PLACEMENT_3D('',#495,#413,#414);
#338=AXIS2_PLACEMENT_3D('',#496,#415,#416);
#339=AXIS2_PLACEMENT_3D('',#498,#417,#418);
#340=AXIS2_PLACEMENT_3D('',#499,#419,#420);
#341=AXIS2_PLACEMENT_3D('',#501,#421,#422);
#342=AXIS2_PLACEMENT_3D('',#502,#423,#424);
#343=AXIS2_PLACEMENT_3D('',#504,#425,#426);
#344=AXIS2_PLACEMENT_3D('',#505,#427,#428);
#345=AXIS2_PLACEMENT_3D('',#507,#429,#430);
#346=AXIS2_PLACEMENT_3D('',#508,#431,#432);
#347=AXIS2_PLACEMENT_3D('',#510,#433,#434);
#348=AXIS2_PLACEMENT_3D('',#511,#435,#436);
#349=AXIS2_PLACEMENT_3D('',#513,#437,#438);
#350=AXIS2_PLACEMENT_3D('',#514,#439,#440);
#351=AXIS2_PLACEMENT_3D('',#516,#441,#442);
#352=AXIS2_PLACEMENT_3D('',#517,#443,#444);
#353=AXIS2_PLACEMENT_3D('',#519,#445,#446);
#354=AXIS2_PLACEMENT_3D('',#520,#447,#448);
#355=DIRECTION('',(0.,0.,1.));
#356=DIRECTION('',(1.,0.,0.));
#357=DIRECTION('',(0.,0.,1.));
#358=DIRECTION('',(1.,0.,0.));
#359=DIRECTION('',(0.,0.,1.));
#360=DIRECTION('',(1.,0.,0.));
#361=DIRECTION('',(0.,0.,1.));
#362=DIRECTION('',(1.,0.,0.));
#363=DIRECTION('',(0.,0.,-1.));
#364=DIRECTION('',(1.,0.,0.));
#365=DIRECTION('',(0.,0.,-1.));
#366=DIRECTION('',(1.,0.,0.));
#367=DIRECTION('',(0.,0.,-1.));
#368=DIRECTION('',(1.,0.,0.));
#369=DIRECTION('',(0.,0.,-1.));
#370=DIRECTION('',(1.,0.,0.));
#371=DIRECTION('',(0.,0.,-1.));
#372=DIRECTION('',(1.,0.,0.));
#373=DIRECTION('',(0.,0.,-1.));
#374=DIRECTION('',(1.,0.,0.));
#375=DIRECTION('',(0.,0.,1.));
#376=DIRECTION('',(-1.,0.,-2.79801985230534E-17));
#377=DIRECTION('',(0.,0.,-1.));
#378=DIRECTION('',(1.,0.,0.));
#379=DIRECTION('',(0.,0.,-1.));
#380=DIRECTION('',(1.,0.,0.));
#381=DIRECTION('',(0.,0.,-1.));
#382=DIRECTION('',(1.,0.,0.));
#383=DIRECTION('',(0.,0.,-1.));
#384=DIRECTION('',(1.,0.,0.));
#385=DIRECTION('',(0.,0.,-1.));
#386=DIRECTION('',(1.,0.,0.));
#387=DIRECTION('',(0.,0.,-1.));
#388=DIRECTION('',(1.,0.,0.));
#389=DIRECTION('',(0.,0.,-1.));
#390=DIRECTION('',(1.,0.,0.));
#391=DIRECTION('',(0.,0.,-1.));
#392=DIRECTION('',(1.,0.,0.));
#393=DIRECTION('',(0.,0.,-1.));
#394=DIRECTION('',(1.,0.,0.));
#395=DIRECTION('',(0.,0.,-1.));
#396=DIRECTION('',(1.,0.,0.));
#397=DIRECTION('',(0.,0.,-1.));
#398=DIRECTION('',(1.,0.,-1.66772323458731E-17));
#399=DIRECTION('',(0.,0.,-1.));
#400=DIRECTION('',(1.,0.,0.));
#401=DIRECTION('',(0.,0.,-1.));
#402=DIRECTION('',(1.,0.,0.));
#403=DIRECTION('',(0.,0.,-1.));
#404=DIRECTION('',(1.,0.,0.));
#405=DIRECTION('',(0.,0.,-1.));
#406=DIRECTION('',(1.,0.,0.));
#407=DIRECTION('',(0.,0.,-1.));
#408=DIRECTION('',(1.,0.,0.));
#409=DIRECTION('',(0.,0.,-1.));
#410=DIRECTION('',(1.,0.,0.));
#411=DIRECTION('',(0.,0.,-1.));
#412=DIRECTION('',(1.,0.,0.));
#413=DIRECTION('',(0.,0.,-1.));
#414=DIRECTION('',(1.,0.,0.));
#415=DIRECTION('',(0.,0.,-1.));
#416=DIRECTION('',(1.,0.,0.));
#417=DIRECTION('',(0.,0.,1.));
#418=DIRECTION('',(-1.,0.,-2.01620553728016E-17));
#419=DIRECTION('',(0.,0.,-1.));
#420=DIRECTION('',(1.,0.,0.));
#421=DIRECTION('',(0.,0.,-1.));
#422=DIRECTION('',(1.,0.,0.));
#423=DIRECTION('',(0.,0.,-1.));
#424=DIRECTION('',(1.,0.,0.));
#425=DIRECTION('',(0.,0.,-1.));
#426=DIRECTION('',(1.,0.,7.54288785478345E-16));
#427=DIRECTION('',(0.,0.,-1.));
#428=DIRECTION('',(1.,0.,0.));
#429=DIRECTION('',(0.,0.,-1.));
#430=DIRECTION('',(1.,0.,3.02382056859916E-17));
#431=DIRECTION('',(0.,0.,-1.));
#432=DIRECTION('',(1.,0.,0.));
#433=DIRECTION('',(0.,0.,-1.));
#434=DIRECTION('',(1.,0.,0.));
#435=DIRECTION('',(0.,0.,-1.));
#436=DIRECTION('',(1.,0.,0.));
#437=DIRECTION('',(0.,0.,-1.));
#438=DIRECTION('',(1.,0.,0.));
#439=DIRECTION('',(0.,0.,-1.));
#440=DIRECTION('',(1.,0.,0.));
#441=DIRECTION('',(0.,0.,-1.));
#442=DIRECTION('',(1.,0.,0.));
#443=DIRECTION('',(0.,0.,-1.));
#444=DIRECTION('',(1.,0.,0.));
#445=DIRECTION('',(0.,0.,-1.));
#446=DIRECTION('',(1.,0.,0.));
#447=DIRECTION('',(0.,0.,-1.));
#448=DIRECTION('',(1.,0.,0.));
#449=CARTESIAN_POINT('',(0.,0.,0.));
#450=CARTESIAN_POINT('',(0.,0.,0.));
#451=CARTESIAN_POINT('',(0.,0.,-50.));
#452=CARTESIAN_POINT('',(0.,0.,-180.));
#453=CARTESIAN_POINT('',(0.,0.,0.));
#454=CARTESIAN_POINT('',(0.,0.,-50.));
#455=CARTESIAN_POINT('',(0.,0.,-180.));
#456=CARTESIAN_POINT('',(0.,0.,-69.));
#457=CARTESIAN_POINT('',(9.99675000000001,0.,-69.));
#458=CARTESIAN_POINT('',(0.,0.,-1.));
#459=CARTESIAN_POINT('',(9.99675000000001,0.,-1.));
#460=CARTESIAN_POINT('',(0.,0.,70.5183697733042));
#461=CARTESIAN_POINT('',(0.,0.,-69.1749453504944));
#462=CARTESIAN_POINT('',(9.95646394793695,0.,-69.1749453504944));
#463=CARTESIAN_POINT('',(0.,0.,-69.));
#464=CARTESIAN_POINT('',(0.,0.,-69.8250546495056));
#465=CARTESIAN_POINT('',(9.64028605206308,0.,-69.8250546495056));
#466=CARTESIAN_POINT('',(0.,0.,-69.8250546495056));
#467=CARTESIAN_POINT('',(0.,0.,-70.));
#468=CARTESIAN_POINT('',(9.59999999999999,0.,-70.));
#469=CARTESIAN_POINT('',(0.,0.,-70.));
#470=CARTESIAN_POINT('',(0.,0.,-180.));
#471=CARTESIAN_POINT('',(9.6,0.,-180.));
#472=CARTESIAN_POINT('',(0.,0.,70.5183697733042));
#473=CARTESIAN_POINT('',(0.,0.,-180.));
#474=CARTESIAN_POINT('',(7.96746876431976,0.,-180.));
#475=CARTESIAN_POINT('',(2.30926389122033E-14,0.,-180.));
#476=CARTESIAN_POINT('',(0.,0.,0.));
#477=CARTESIAN_POINT('',(8.99675000000001,0.,0.));
#478=CARTESIAN_POINT('',(0.,0.,0.));
#479=CARTESIAN_POINT('',(0.,0.,0.));
#480=CARTESIAN_POINT('',(0.,0.,-158.5));
#481=CARTESIAN_POINT('',(4.625,0.,-158.5));
#482=CARTESIAN_POINT('',(0.,0.,-155.721019636998));
#483=CARTESIAN_POINT('',(0.,0.,-155.721019636998));
#484=CARTESIAN_POINT('',(0.,0.,-162.5));
#485=CARTESIAN_POINT('',(4.625,0.,-162.5));
#486=CARTESIAN_POINT('',(0.,0.,-180.));
#487=CARTESIAN_POINT('',(0.,0.,-162.893923101205));
#488=CARTESIAN_POINT('',(4.95554072893323,0.,-162.893923101205));
#489=CARTESIAN_POINT('',(0.,0.,-162.5));
#490=CARTESIAN_POINT('',(0.,0.,-162.999151729659));
#491=CARTESIAN_POINT('',(5.552321936388,0.,-162.999151729659));
#492=CARTESIAN_POINT('',(0.,0.,-162.893923101205));
#493=CARTESIAN_POINT('',(0.,0.,-165.501002215596));
#494=CARTESIAN_POINT('',(5.77120549174436,0.,-165.501002215596));
#495=CARTESIAN_POINT('',(0.,0.,-164.279401808575));
#496=CARTESIAN_POINT('',(0.,0.,-165.582311566379));
#497=CARTESIAN_POINT('',(5.54780988648006,0.,-165.582311566379));
#498=CARTESIAN_POINT('',(0.,0.,-165.501002215596));
#499=CARTESIAN_POINT('',(0.,0.,-166.));
#500=CARTESIAN_POINT('',(5.28680918566302,0.,-166.));
#501=CARTESIAN_POINT('',(0.,0.,-165.958188614693));
#502=CARTESIAN_POINT('',(0.,0.,-174.834));
#503=CARTESIAN_POINT('',(6.2153,0.,-174.834));
#504=CARTESIAN_POINT('',(0.,0.,-166.));
#505=CARTESIAN_POINT('',(0.,0.,-175.130056354157));
#506=CARTESIAN_POINT('',(7.02870814793346,0.,-175.130056354157));
#507=CARTESIAN_POINT('',(0.,0.,-174.834));
#508=CARTESIAN_POINT('',(0.,0.,-175.59990266455));
#509=CARTESIAN_POINT('',(7.35769807627063,0.,-175.59990266455));
#510=CARTESIAN_POINT('',(0.,0.,-175.59990266455));
#511=CARTESIAN_POINT('',(0.,0.,-177.2));
#512=CARTESIAN_POINT('',(7.35769807627063,0.,-177.2));
#513=CARTESIAN_POINT('',(0.,0.,-180.));
#514=CARTESIAN_POINT('',(0.,0.,-177.5));
#515=CARTESIAN_POINT('',(7.25769807627063,0.,-177.5));
#516=CARTESIAN_POINT('',(0.,0.,-177.2));
#517=CARTESIAN_POINT('',(0.,0.,-179.4));
#518=CARTESIAN_POINT('',(7.32404753830495,0.,-179.4));
#519=CARTESIAN_POINT('',(0.,0.,-177.5));
#520=CARTESIAN_POINT('',(0.,0.,-179.4));
#521=MECHANICAL_DESIGN_GEOMETRIC_PRESENTATION_REPRESENTATION('',(#286,#287,
#288,#289,#290,#291,#292),#522);
#522=(
GEOMETRIC_REPRESENTATION_CONTEXT(3)
GLOBAL_UNCERTAINTY_ASSIGNED_CONTEXT((#523))
GLOBAL_UNIT_ASSIGNED_CONTEXT((#529,#525,#524))
REPRESENTATION_CONTEXT('XE20200E5-180-00','TOP_LEVEL_ASSEMBLY_PART')
);
#523=UNCERTAINTY_MEASURE_WITH_UNIT(LENGTH_MEASURE(2.E-5),#529,
'DISTANCE_ACCURACY_VALUE','Maximum Tolerance applied to model');
#524=(
NAMED_UNIT(*)
SI_UNIT($,.STERADIAN.)
SOLID_ANGLE_UNIT()
);
#525=(
CONVERSION_BASED_UNIT('DEGREE',#527)
NAMED_UNIT(#526)
PLANE_ANGLE_UNIT()
);
#526=DIMENSIONAL_EXPONENTS(0.,0.,0.,0.,0.,0.,0.);
#527=PLANE_ANGLE_MEASURE_WITH_UNIT(PLANE_ANGLE_MEASURE(0.0174532925),#528);
#528=(
NAMED_UNIT(*)
PLANE_ANGLE_UNIT()
SI_UNIT($,.RADIAN.)
);
#529=(
LENGTH_UNIT()
NAMED_UNIT(*)
SI_UNIT(.MILLI.,.METRE.)
);
ENDSEC;
END-ISO-10303-21;
