ISO-10303-21;
HEADER;
/* Generated by software containing ST-Developer
 * from STEP Tools, Inc. (www.steptools.com) 
 */
/* OPTION: using custom schema-name function */

FILE_DESCRIPTION(
/* description */ (''),
/* implementation_level */ '2;1');

FILE_NAME(
/* name */ 'XE12320J4-250-10.0S.stp',
/* time_stamp */ '2022-07-28T16:21:55+06:00',
/* author */ (''),
/* organization */ (''),
/* preprocessor_version */ 'ST-DEVELOPER v16.7',
/* originating_system */ 'SIEMENS PLM Software NX 12.0',
/* authorisation */ '');

FILE_SCHEMA (('AUTOMOTIVE_DESIGN { 1 0 10303 214 3 1 1 1 }'));
ENDSEC;

DATA;
#10=CONSTRUCTIVE_GEOMETRY_REPRESENTATION_RELATIONSHIP(
'supplemental geometry','',#34,#11);
#11=CONSTRUCTIVE_GEOMETRY_REPRESENTATION('supplemental geometry',(#254,
#255,#256),#422);
#12=GEOMETRICALLY_BOUNDED_WIREFRAME_SHAPE_REPRESENTATION(
'inpu2A3062D0pmh0-None',(#35),#422);
#13=PROPERTY_DEFINITION_REPRESENTATION(#17,#15);
#14=PROPERTY_DEFINITION_REPRESENTATION(#18,#16);
#15=REPRESENTATION('',(#19),#422);
#16=REPRESENTATION('',(#20),#422);
#17=PROPERTY_DEFINITION('pmi validation property','',#25);
#18=PROPERTY_DEFINITION('pmi validation property','',#25);
#19=VALUE_REPRESENTATION_ITEM('number of annotations',COUNT_MEASURE(0.));
#20=VALUE_REPRESENTATION_ITEM('number of views',COUNT_MEASURE(0.));
#21=SHAPE_REPRESENTATION_RELATIONSHIP('None',
'relationship between inpu2A3062D0pmh0-None and inpu2A3062D0pmh0-None',
#34,#23);
#22=SHAPE_REPRESENTATION_RELATIONSHIP('None',
'relationship between inpu2A3062D0pmh0-None and inpu2A3062D0pmh0-None',
#34,#12);
#23=ADVANCED_BREP_SHAPE_REPRESENTATION('inpu2A3062D0pmh0-None',(#41),#422);
#24=SHAPE_DEFINITION_REPRESENTATION(#25,#34);
#25=PRODUCT_DEFINITION_SHAPE('','',#26);
#26=PRODUCT_DEFINITION(' ','',#28,#27);
#27=PRODUCT_DEFINITION_CONTEXT('part definition',#33,'design');
#28=PRODUCT_DEFINITION_FORMATION_WITH_SPECIFIED_SOURCE(' ',' ',#30,
 .NOT_KNOWN.);
#29=PRODUCT_RELATED_PRODUCT_CATEGORY('part','',(#30));
#30=PRODUCT('inpu2A3062D0pmh0','inpu2A3062D0pmh0',' ',(#31));
#31=PRODUCT_CONTEXT(' ',#33,'mechanical');
#32=APPLICATION_PROTOCOL_DEFINITION('international standard',
'automotive_design',2010,#33);
#33=APPLICATION_CONTEXT(
'core data for automotive mechanical design processes');
#34=SHAPE_REPRESENTATION('inpu2A3062D0pmh0-None',(#253),#422);
#35=GEOMETRIC_CURVE_SET('None',(#365,#366,#367));
#36=SURFACE_STYLE_USAGE(.BOTH.,#37);
#37=SURFACE_SIDE_STYLE('',(#38));
#38=SURFACE_STYLE_FILL_AREA(#39);
#39=FILL_AREA_STYLE('',(#40));
#40=FILL_AREA_STYLE_COLOUR('',#252);
#41=MANIFOLD_SOLID_BREP('NOCUT',#42);
#42=CLOSED_SHELL('',(#59,#60,#61,#62,#63,#64,#65,#66,#67,#68,#69,#70,#71,
#72,#73,#74,#75));
#43=TOROIDAL_SURFACE('',#274,2.81495321756222,1.);
#44=TOROIDAL_SURFACE('',#282,4.1301584610165,0.5);
#45=TOROIDAL_SURFACE('',#286,4.1301584610165,0.500000000000005);
#46=VERTEX_LOOP('',#181);
#47=FACE_OUTER_BOUND('',#117,.T.);
#48=PLANE('',#263);
#49=PLANE('',#265);
#50=CONICAL_SURFACE('',#261,15.996,10.);
#51=CONICAL_SURFACE('',#266,14.496,45.);
#52=CONICAL_SURFACE('',#268,0.,59.);
#53=CONICAL_SURFACE('',#272,2.775,75.0000000000006);
#54=CONICAL_SURFACE('',#276,3.75464583834813,20.0000000000001);
#55=CONICAL_SURFACE('',#278,3.49549967072475,6.);
#56=CONICAL_SURFACE('',#280,4.,70.0000000000001);
#57=CONICAL_SURFACE('',#288,4.5301584610165,2.00000000000003);
#58=CONICAL_SURFACE('',#289,4.58253961525413,47.);
#59=ADVANCED_FACE('FP_EH_SU1',(#79,#80),#76,.T.);
#60=ADVANCED_FACE('FP_EH_SU3',(#81,#82),#50,.T.);
#61=ADVANCED_FACE('FP_EH_SU4',(#83,#84),#48,.T.);
#62=ADVANCED_FACE('',(#47),#49,.F.);
#63=ADVANCED_FACE('',(#85,#86),#51,.T.);
#64=ADVANCED_FACE('',(#87,#88),#52,.F.);
#65=ADVANCED_FACE('DCH3',(#89,#90),#77,.F.);
#66=ADVANCED_FACE('',(#91,#92),#53,.F.);
#67=ADVANCED_FACE('',(#93,#94),#43,.F.);
#68=ADVANCED_FACE('',(#95,#96),#54,.F.);
#69=ADVANCED_FACE('TSALN',(#97,#98),#55,.F.);
#70=ADVANCED_FACE('',(#99,#100),#56,.F.);
#71=ADVANCED_FACE('',(#101,#102),#44,.F.);
#72=ADVANCED_FACE('DCH2',(#103,#104),#78,.F.);
#73=ADVANCED_FACE('',(#105,#106),#45,.F.);
#74=ADVANCED_FACE('TSAN',(#107,#108),#57,.F.);
#75=ADVANCED_FACE('DCH4',(#109,#110),#58,.F.);
#76=CYLINDRICAL_SURFACE('',#259,15.996);
#77=CYLINDRICAL_SURFACE('',#270,2.775);
#78=CYLINDRICAL_SURFACE('',#284,4.63015846101651);
#79=FACE_BOUND('',#111,.T.);
#80=FACE_BOUND('',#112,.T.);
#81=FACE_BOUND('',#113,.T.);
#82=FACE_BOUND('',#114,.T.);
#83=FACE_BOUND('',#115,.T.);
#84=FACE_BOUND('',#116,.T.);
#85=FACE_BOUND('',#118,.T.);
#86=FACE_BOUND('',#119,.T.);
#87=FACE_BOUND('',#120,.T.);
#88=FACE_BOUND('',#46,.T.);
#89=FACE_BOUND('',#121,.T.);
#90=FACE_BOUND('',#122,.T.);
#91=FACE_BOUND('',#123,.T.);
#92=FACE_BOUND('',#124,.T.);
#93=FACE_BOUND('',#125,.T.);
#94=FACE_BOUND('',#126,.T.);
#95=FACE_BOUND('',#127,.T.);
#96=FACE_BOUND('',#128,.T.);
#97=FACE_BOUND('',#129,.T.);
#98=FACE_BOUND('',#130,.T.);
#99=FACE_BOUND('',#131,.T.);
#100=FACE_BOUND('',#132,.T.);
#101=FACE_BOUND('',#133,.T.);
#102=FACE_BOUND('',#134,.T.);
#103=FACE_BOUND('',#135,.T.);
#104=FACE_BOUND('',#136,.T.);
#105=FACE_BOUND('',#137,.T.);
#106=FACE_BOUND('',#138,.T.);
#107=FACE_BOUND('',#139,.T.);
#108=FACE_BOUND('',#140,.T.);
#109=FACE_BOUND('',#141,.T.);
#110=FACE_BOUND('',#142,.T.);
#111=EDGE_LOOP('',(#143));
#112=EDGE_LOOP('',(#144));
#113=EDGE_LOOP('',(#145));
#114=EDGE_LOOP('',(#146));
#115=EDGE_LOOP('',(#147));
#116=EDGE_LOOP('',(#148));
#117=EDGE_LOOP('',(#149));
#118=EDGE_LOOP('',(#150));
#119=EDGE_LOOP('',(#151));
#120=EDGE_LOOP('',(#152));
#121=EDGE_LOOP('',(#153));
#122=EDGE_LOOP('',(#154));
#123=EDGE_LOOP('',(#155));
#124=EDGE_LOOP('',(#156));
#125=EDGE_LOOP('',(#157));
#126=EDGE_LOOP('',(#158));
#127=EDGE_LOOP('',(#159));
#128=EDGE_LOOP('',(#160));
#129=EDGE_LOOP('',(#161));
#130=EDGE_LOOP('',(#162));
#131=EDGE_LOOP('',(#163));
#132=EDGE_LOOP('',(#164));
#133=EDGE_LOOP('',(#165));
#134=EDGE_LOOP('',(#166));
#135=EDGE_LOOP('',(#167));
#136=EDGE_LOOP('',(#168));
#137=EDGE_LOOP('',(#169));
#138=EDGE_LOOP('',(#170));
#139=EDGE_LOOP('',(#171));
#140=EDGE_LOOP('',(#172));
#141=EDGE_LOOP('',(#173));
#142=EDGE_LOOP('',(#174));
#143=ORIENTED_EDGE('',*,*,#192,.T.);
#144=ORIENTED_EDGE('',*,*,#193,.T.);
#145=ORIENTED_EDGE('',*,*,#194,.T.);
#146=ORIENTED_EDGE('',*,*,#192,.F.);
#147=ORIENTED_EDGE('',*,*,#195,.F.);
#148=ORIENTED_EDGE('',*,*,#194,.F.);
#149=ORIENTED_EDGE('',*,*,#196,.F.);
#150=ORIENTED_EDGE('',*,*,#193,.F.);
#151=ORIENTED_EDGE('',*,*,#196,.T.);
#152=ORIENTED_EDGE('',*,*,#197,.T.);
#153=ORIENTED_EDGE('',*,*,#198,.T.);
#154=ORIENTED_EDGE('',*,*,#197,.F.);
#155=ORIENTED_EDGE('',*,*,#199,.T.);
#156=ORIENTED_EDGE('',*,*,#198,.F.);
#157=ORIENTED_EDGE('',*,*,#200,.T.);
#158=ORIENTED_EDGE('',*,*,#199,.F.);
#159=ORIENTED_EDGE('',*,*,#201,.T.);
#160=ORIENTED_EDGE('',*,*,#200,.F.);
#161=ORIENTED_EDGE('',*,*,#202,.T.);
#162=ORIENTED_EDGE('',*,*,#201,.F.);
#163=ORIENTED_EDGE('',*,*,#203,.T.);
#164=ORIENTED_EDGE('',*,*,#202,.F.);
#165=ORIENTED_EDGE('',*,*,#204,.T.);
#166=ORIENTED_EDGE('',*,*,#203,.F.);
#167=ORIENTED_EDGE('',*,*,#205,.T.);
#168=ORIENTED_EDGE('',*,*,#204,.F.);
#169=ORIENTED_EDGE('',*,*,#206,.T.);
#170=ORIENTED_EDGE('',*,*,#205,.F.);
#171=ORIENTED_EDGE('',*,*,#207,.T.);
#172=ORIENTED_EDGE('',*,*,#206,.F.);
#173=ORIENTED_EDGE('',*,*,#195,.T.);
#174=ORIENTED_EDGE('',*,*,#207,.F.);
#175=VERTEX_POINT('',#372);
#176=VERTEX_POINT('',#374);
#177=VERTEX_POINT('',#377);
#178=VERTEX_POINT('',#380);
#179=VERTEX_POINT('',#383);
#180=VERTEX_POINT('',#387);
#181=VERTEX_POINT('',#388);
#182=VERTEX_POINT('',#391);
#183=VERTEX_POINT('',#394);
#184=VERTEX_POINT('',#397);
#185=VERTEX_POINT('',#400);
#186=VERTEX_POINT('',#403);
#187=VERTEX_POINT('',#406);
#188=VERTEX_POINT('',#409);
#189=VERTEX_POINT('',#412);
#190=VERTEX_POINT('',#415);
#191=VERTEX_POINT('',#418);
#192=EDGE_CURVE('',#175,#175,#208,.T.);
#193=EDGE_CURVE('',#176,#176,#209,.T.);
#194=EDGE_CURVE('',#177,#177,#210,.T.);
#195=EDGE_CURVE('',#178,#178,#211,.T.);
#196=EDGE_CURVE('',#179,#179,#212,.T.);
#197=EDGE_CURVE('',#180,#180,#213,.T.);
#198=EDGE_CURVE('',#182,#182,#214,.T.);
#199=EDGE_CURVE('',#183,#183,#215,.T.);
#200=EDGE_CURVE('',#184,#184,#216,.T.);
#201=EDGE_CURVE('',#185,#185,#217,.T.);
#202=EDGE_CURVE('',#186,#186,#218,.T.);
#203=EDGE_CURVE('',#187,#187,#219,.T.);
#204=EDGE_CURVE('',#188,#188,#220,.T.);
#205=EDGE_CURVE('',#189,#189,#221,.T.);
#206=EDGE_CURVE('',#190,#190,#222,.T.);
#207=EDGE_CURVE('',#191,#191,#223,.T.);
#208=CIRCLE('',#257,15.996);
#209=CIRCLE('',#258,15.996);
#210=CIRCLE('',#260,5.79999999999997);
#211=CIRCLE('',#262,5.11872397026647);
#212=CIRCLE('',#264,14.496);
#213=CIRCLE('',#267,2.775);
#214=CIRCLE('',#269,2.775);
#215=CIRCLE('',#271,3.07377226266474);
#216=CIRCLE('',#273,3.75464583834813);
#217=CIRCLE('',#275,3.49549967072475);
#218=CIRCLE('',#277,4.);
#219=CIRCLE('',#279,4.30116853267934);
#220=CIRCLE('',#281,4.6301584610165);
#221=CIRCLE('',#283,4.63015846101651);
#222=CIRCLE('',#285,4.5301584610165);
#223=CIRCLE('',#287,4.58253961525413);
#224=CURVE_STYLE('',#227,POSITIVE_LENGTH_MEASURE(0.18),#251);
#225=CURVE_STYLE('',#228,POSITIVE_LENGTH_MEASURE(0.18),#251);
#226=CURVE_STYLE('',#229,POSITIVE_LENGTH_MEASURE(0.18),#251);
#227=DRAUGHTING_PRE_DEFINED_CURVE_FONT('continuous');
#228=DRAUGHTING_PRE_DEFINED_CURVE_FONT('continuous');
#229=DRAUGHTING_PRE_DEFINED_CURVE_FONT('continuous');
#230=PRESENTATION_LAYER_ASSIGNMENT('1','Layer 1',(#365,#366,#367,#254,#255,
#256,#41));
#231=STYLED_ITEM('',(#238),#365);
#232=STYLED_ITEM('',(#239),#366);
#233=STYLED_ITEM('',(#240),#367);
#234=STYLED_ITEM('',(#241),#254);
#235=STYLED_ITEM('',(#242),#255);
#236=STYLED_ITEM('',(#243),#256);
#237=STYLED_ITEM('',(#244),#41);
#238=PRESENTATION_STYLE_ASSIGNMENT((#245));
#239=PRESENTATION_STYLE_ASSIGNMENT((#246));
#240=PRESENTATION_STYLE_ASSIGNMENT((#247));
#241=PRESENTATION_STYLE_ASSIGNMENT((#224));
#242=PRESENTATION_STYLE_ASSIGNMENT((#225));
#243=PRESENTATION_STYLE_ASSIGNMENT((#226));
#244=PRESENTATION_STYLE_ASSIGNMENT((#36));
#245=POINT_STYLE('',#248,POSITIVE_LENGTH_MEASURE(3.),#251);
#246=POINT_STYLE('',#249,POSITIVE_LENGTH_MEASURE(3.),#251);
#247=POINT_STYLE('',#250,POSITIVE_LENGTH_MEASURE(3.),#251);
#248=PRE_DEFINED_POINT_MARKER_SYMBOL('plus');
#249=PRE_DEFINED_POINT_MARKER_SYMBOL('plus');
#250=PRE_DEFINED_POINT_MARKER_SYMBOL('plus');
#251=COLOUR_RGB('Strong Stone',0.576470588235294,0.54508278019379,0.392156862745098);
#252=COLOUR_RGB('Medium Gray',0.490196078431373,0.490196078431373,0.490196078431373);
#253=AXIS2_PLACEMENT_3D('',#364,#290,#291);
#254=AXIS2_PLACEMENT_3D('PCS',#368,#292,#293);
#255=AXIS2_PLACEMENT_3D('MCS',#369,#294,#295);
#256=AXIS2_PLACEMENT_3D('CSW',#370,#296,#297);
#257=AXIS2_PLACEMENT_3D('',#371,#298,#299);
#258=AXIS2_PLACEMENT_3D('',#373,#300,#301);
#259=AXIS2_PLACEMENT_3D('',#375,#302,#303);
#260=AXIS2_PLACEMENT_3D('',#376,#304,#305);
#261=AXIS2_PLACEMENT_3D('',#378,#306,#307);
#262=AXIS2_PLACEMENT_3D('',#379,#308,#309);
#263=AXIS2_PLACEMENT_3D('',#381,#310,#311);
#264=AXIS2_PLACEMENT_3D('',#382,#312,#313);
#265=AXIS2_PLACEMENT_3D('',#384,#314,#315);
#266=AXIS2_PLACEMENT_3D('',#385,#316,#317);
#267=AXIS2_PLACEMENT_3D('',#386,#318,#319);
#268=AXIS2_PLACEMENT_3D('',#389,#320,#321);
#269=AXIS2_PLACEMENT_3D('',#390,#322,#323);
#270=AXIS2_PLACEMENT_3D('',#392,#324,#325);
#271=AXIS2_PLACEMENT_3D('',#393,#326,#327);
#272=AXIS2_PLACEMENT_3D('',#395,#328,#329);
#273=AXIS2_PLACEMENT_3D('',#396,#330,#331);
#274=AXIS2_PLACEMENT_3D('',#398,#332,#333);
#275=AXIS2_PLACEMENT_3D('',#399,#334,#335);
#276=AXIS2_PLACEMENT_3D('',#401,#336,#337);
#277=AXIS2_PLACEMENT_3D('',#402,#338,#339);
#278=AXIS2_PLACEMENT_3D('',#404,#340,#341);
#279=AXIS2_PLACEMENT_3D('',#405,#342,#343);
#280=AXIS2_PLACEMENT_3D('',#407,#344,#345);
#281=AXIS2_PLACEMENT_3D('',#408,#346,#347);
#282=AXIS2_PLACEMENT_3D('',#410,#348,#349);
#283=AXIS2_PLACEMENT_3D('',#411,#350,#351);
#284=AXIS2_PLACEMENT_3D('',#413,#352,#353);
#285=AXIS2_PLACEMENT_3D('',#414,#354,#355);
#286=AXIS2_PLACEMENT_3D('',#416,#356,#357);
#287=AXIS2_PLACEMENT_3D('',#417,#358,#359);
#288=AXIS2_PLACEMENT_3D('',#419,#360,#361);
#289=AXIS2_PLACEMENT_3D('',#420,#362,#363);
#290=DIRECTION('',(0.,0.,1.));
#291=DIRECTION('',(1.,0.,0.));
#292=DIRECTION('',(0.,0.,1.));
#293=DIRECTION('',(1.,0.,0.));
#294=DIRECTION('',(0.,0.,1.));
#295=DIRECTION('',(1.,0.,0.));
#296=DIRECTION('',(0.,0.,1.));
#297=DIRECTION('',(1.,0.,0.));
#298=DIRECTION('',(-2.85823374424774E-16,0.,1.));
#299=DIRECTION('',(-1.,0.,0.));
#300=DIRECTION('',(0.,0.,-1.));
#301=DIRECTION('',(1.,0.,0.));
#302=DIRECTION('',(-2.85823374424774E-16,0.,1.));
#303=DIRECTION('',(-1.,0.,-4.33789316323283E-16));
#304=DIRECTION('',(-2.85823374424774E-16,0.,1.));
#305=DIRECTION('',(-1.,0.,0.));
#306=DIRECTION('',(-2.85823374424774E-16,0.,1.));
#307=DIRECTION('',(-1.,0.,0.));
#308=DIRECTION('',(0.,0.,-1.));
#309=DIRECTION('',(1.,0.,0.));
#310=DIRECTION('',(2.85823374424774E-16,0.,-1.));
#311=DIRECTION('',(1.,0.,2.77555756156289E-16));
#312=DIRECTION('',(0.,0.,-1.));
#313=DIRECTION('',(1.,0.,0.));
#314=DIRECTION('',(0.,0.,-1.));
#315=DIRECTION('',(1.,0.,0.));
#316=DIRECTION('',(0.,0.,-1.));
#317=DIRECTION('',(1.,0.,0.));
#318=DIRECTION('',(0.,0.,-1.));
#319=DIRECTION('',(1.,0.,0.));
#320=DIRECTION('',(0.,0.,-1.));
#321=DIRECTION('',(1.,0.,3.33544646917461E-17));
#322=DIRECTION('',(0.,0.,-1.));
#323=DIRECTION('',(1.,0.,0.));
#324=DIRECTION('',(0.,0.,-1.));
#325=DIRECTION('',(1.,0.,0.));
#326=DIRECTION('',(0.,0.,-1.));
#327=DIRECTION('',(1.,0.,0.));
#328=DIRECTION('',(0.,0.,-1.));
#329=DIRECTION('',(1.,0.,-2.22946748086986E-17));
#330=DIRECTION('',(0.,0.,-1.));
#331=DIRECTION('',(1.,0.,0.));
#332=DIRECTION('',(0.,0.,-1.));
#333=DIRECTION('',(1.,0.,0.));
#334=DIRECTION('',(0.,0.,-1.));
#335=DIRECTION('',(1.,0.,0.));
#336=DIRECTION('',(0.,0.,1.));
#337=DIRECTION('',(-1.,0.,-1.50958377402896E-16));
#338=DIRECTION('',(0.,0.,-1.));
#339=DIRECTION('',(1.,0.,0.));
#340=DIRECTION('',(0.,0.,-1.));
#341=DIRECTION('',(1.,0.,-5.11153653033929E-16));
#342=DIRECTION('',(0.,0.,-1.));
#343=DIRECTION('',(1.,0.,0.));
#344=DIRECTION('',(0.,0.,-1.));
#345=DIRECTION('',(1.,0.,1.00875171351144E-17));
#346=DIRECTION('',(0.,0.,-1.));
#347=DIRECTION('',(1.,0.,0.));
#348=DIRECTION('',(0.,0.,-1.));
#349=DIRECTION('',(1.,0.,0.));
#350=DIRECTION('',(0.,0.,-1.));
#351=DIRECTION('',(1.,0.,0.));
#352=DIRECTION('',(0.,0.,-1.));
#353=DIRECTION('',(1.,0.,0.));
#354=DIRECTION('',(0.,0.,-1.));
#355=DIRECTION('',(1.,0.,0.));
#356=DIRECTION('',(0.,0.,-1.));
#357=DIRECTION('',(1.,0.,0.));
#358=DIRECTION('',(0.,0.,-1.));
#359=DIRECTION('',(1.,0.,0.));
#360=DIRECTION('',(0.,0.,-1.));
#361=DIRECTION('',(1.,0.,0.));
#362=DIRECTION('',(0.,0.,-1.));
#363=DIRECTION('',(1.,0.,-5.15447205709796E-17));
#364=CARTESIAN_POINT('',(0.,0.,0.));
#365=CARTESIAN_POINT('',(0.,0.,0.));
#366=CARTESIAN_POINT('',(0.,0.,-60.));
#367=CARTESIAN_POINT('',(0.,0.,-250.));
#368=CARTESIAN_POINT('',(0.,0.,0.));
#369=CARTESIAN_POINT('',(0.,0.,-60.));
#370=CARTESIAN_POINT('',(0.,0.,-250.));
#371=CARTESIAN_POINT('',(1.50027717876129E-14,0.,-192.175610567178));
#372=CARTESIAN_POINT('',(-15.996,0.,-192.175610567178));
#373=CARTESIAN_POINT('',(0.,0.,-1.5));
#374=CARTESIAN_POINT('',(15.996,0.,-1.5));
#375=CARTESIAN_POINT('',(-2.22044604925031E-14,0.,-62.));
#376=CARTESIAN_POINT('',(3.15303338993544E-14,0.,-250.));
#377=CARTESIAN_POINT('',(-5.79999999999994,0.,-250.));
#378=CARTESIAN_POINT('',(1.50027717876129E-14,0.,-192.175610567178));
#379=CARTESIAN_POINT('',(0.,0.,-250.));
#380=CARTESIAN_POINT('',(5.11872397026647,0.,-250.));
#381=CARTESIAN_POINT('',(5.8,0.,-250.));
#382=CARTESIAN_POINT('',(0.,0.,0.));
#383=CARTESIAN_POINT('',(14.496,0.,0.));
#384=CARTESIAN_POINT('',(0.,0.,0.));
#385=CARTESIAN_POINT('',(0.,0.,0.));
#386=CARTESIAN_POINT('',(0.,0.,-235.5));
#387=CARTESIAN_POINT('',(2.775,0.,-235.5));
#388=CARTESIAN_POINT('',(0.,0.,-233.832611782199));
#389=CARTESIAN_POINT('',(0.,0.,-233.832611782199));
#390=CARTESIAN_POINT('',(0.,0.,-239.2));
#391=CARTESIAN_POINT('',(2.775,0.,-239.2));
#392=CARTESIAN_POINT('',(0.,0.,-250.));
#393=CARTESIAN_POINT('',(0.,0.,-239.280055786502));
#394=CARTESIAN_POINT('',(3.07377226266474,0.,-239.280055786502));
#395=CARTESIAN_POINT('',(0.,0.,-239.2));
#396=CARTESIAN_POINT('',(0.,0.,-240.588001756117));
#397=CARTESIAN_POINT('',(3.75464583834813,0.,-240.588001756117));
#398=CARTESIAN_POINT('',(0.,0.,-240.245981612791));
#399=CARTESIAN_POINT('',(0.,0.,-241.3));
#400=CARTESIAN_POINT('',(3.49549967072475,0.,-241.3));
#401=CARTESIAN_POINT('',(0.,0.,-240.588001756117));
#402=CARTESIAN_POINT('',(0.,0.,-246.1));
#403=CARTESIAN_POINT('',(4.,0.,-246.1));
#404=CARTESIAN_POINT('',(0.,0.,-241.3));
#405=CARTESIAN_POINT('',(0.,0.,-246.209616381393));
#406=CARTESIAN_POINT('',(4.30116853267934,0.,-246.209616381393));
#407=CARTESIAN_POINT('',(0.,0.,-246.1));
#408=CARTESIAN_POINT('',(0.,0.,-246.679462691786));
#409=CARTESIAN_POINT('',(4.6301584610165,0.,-246.679462691786));
#410=CARTESIAN_POINT('',(0.,0.,-246.679462691786));
#411=CARTESIAN_POINT('',(0.,0.,-247.7));
#412=CARTESIAN_POINT('',(4.63015846101651,0.,-247.7));
#413=CARTESIAN_POINT('',(0.,0.,-250.));
#414=CARTESIAN_POINT('',(0.,0.,-248.));
#415=CARTESIAN_POINT('',(4.5301584610165,0.,-248.));
#416=CARTESIAN_POINT('',(0.,0.,-247.7));
#417=CARTESIAN_POINT('',(0.,0.,-249.5));
#418=CARTESIAN_POINT('',(4.58253961525413,0.,-249.5));
#419=CARTESIAN_POINT('',(0.,0.,-248.));
#420=CARTESIAN_POINT('',(0.,0.,-249.5));
#421=MECHANICAL_DESIGN_GEOMETRIC_PRESENTATION_REPRESENTATION('',(#231,#232,
#233,#234,#235,#236,#237),#422);
#422=(
GEOMETRIC_REPRESENTATION_CONTEXT(3)
GLOBAL_UNCERTAINTY_ASSIGNED_CONTEXT((#423))
GLOBAL_UNIT_ASSIGNED_CONTEXT((#429,#425,#424))
REPRESENTATION_CONTEXT('XE12320J4-250-10','TOP_LEVEL_ASSEMBLY_PART')
);
#423=UNCERTAINTY_MEASURE_WITH_UNIT(LENGTH_MEASURE(2.E-5),#429,
'DISTANCE_ACCURACY_VALUE','Maximum Tolerance applied to model');
#424=(
NAMED_UNIT(*)
SI_UNIT($,.STERADIAN.)
SOLID_ANGLE_UNIT()
);
#425=(
CONVERSION_BASED_UNIT('DEGREE',#427)
NAMED_UNIT(#426)
PLANE_ANGLE_UNIT()
);
#426=DIMENSIONAL_EXPONENTS(0.,0.,0.,0.,0.,0.,0.);
#427=PLANE_ANGLE_MEASURE_WITH_UNIT(PLANE_ANGLE_MEASURE(0.0174532925),#428);
#428=(
NAMED_UNIT(*)
PLANE_ANGLE_UNIT()
SI_UNIT($,.RADIAN.)
);
#429=(
LENGTH_UNIT()
NAMED_UNIT(*)
SI_UNIT(.MILLI.,.METRE.)
);
ENDSEC;
END-ISO-10303-21;
