ISO-10303-21;
HEADER;
/* Generated by software containing ST-Developer
 * from STEP Tools, Inc. (www.steptools.com) 
 */
/* OPTION: using custom schema-name function */

FILE_DESCRIPTION(
/* description */ (''),
/* implementation_level */ '2;1');

FILE_NAME(
/* name */ 'XE10320J6-250-10.0S.stp',
/* time_stamp */ '2022-07-28T09:23:19+06:00',
/* author */ (''),
/* organization */ (''),
/* preprocessor_version */ 'ST-DEVELOPER v16.7',
/* originating_system */ 'SIEMENS PLM Software NX 12.0',
/* authorisation */ '');

FILE_SCHEMA (('AUTOMOTIVE_DESIGN { 1 0 10303 214 3 1 1 1 }'));
ENDSEC;

DATA;
#10=CONSTRUCTIVE_GEOMETRY_REPRESENTATION_RELATIONSHIP(
'supplemental geometry','',#34,#11);
#11=CONSTRUCTIVE_GEOMETRY_REPRESENTATION('supplemental geometry',(#265,
#266,#267),#442);
#12=GEOMETRICALLY_BOUNDED_WIREFRAME_SHAPE_REPRESENTATION(
'inpu2A3062D0pme7-None',(#35),#442);
#13=PROPERTY_DEFINITION_REPRESENTATION(#17,#15);
#14=PROPERTY_DEFINITION_REPRESENTATION(#18,#16);
#15=REPRESENTATION('',(#19),#442);
#16=REPRESENTATION('',(#20),#442);
#17=PROPERTY_DEFINITION('pmi validation property','',#25);
#18=PROPERTY_DEFINITION('pmi validation property','',#25);
#19=VALUE_REPRESENTATION_ITEM('number of annotations',COUNT_MEASURE(0.));
#20=VALUE_REPRESENTATION_ITEM('number of views',COUNT_MEASURE(0.));
#21=SHAPE_REPRESENTATION_RELATIONSHIP('None',
'relationship between inpu2A3062D0pme7-None and inpu2A3062D0pme7-None',
#34,#23);
#22=SHAPE_REPRESENTATION_RELATIONSHIP('None',
'relationship between inpu2A3062D0pme7-None and inpu2A3062D0pme7-None',
#34,#12);
#23=ADVANCED_BREP_SHAPE_REPRESENTATION('inpu2A3062D0pme7-None',(#41),#442);
#24=SHAPE_DEFINITION_REPRESENTATION(#25,#34);
#25=PRODUCT_DEFINITION_SHAPE('','',#26);
#26=PRODUCT_DEFINITION(' ','',#28,#27);
#27=PRODUCT_DEFINITION_CONTEXT('part definition',#33,'design');
#28=PRODUCT_DEFINITION_FORMATION_WITH_SPECIFIED_SOURCE(' ',' ',#30,
 .NOT_KNOWN.);
#29=PRODUCT_RELATED_PRODUCT_CATEGORY('part','',(#30));
#30=PRODUCT('inpu2A3062D0pme7','inpu2A3062D0pme7',' ',(#31));
#31=PRODUCT_CONTEXT(' ',#33,'mechanical');
#32=APPLICATION_PROTOCOL_DEFINITION('international standard',
'automotive_design',2010,#33);
#33=APPLICATION_CONTEXT(
'core data for automotive mechanical design processes');
#34=SHAPE_REPRESENTATION('inpu2A3062D0pme7-None',(#264),#442);
#35=GEOMETRIC_CURVE_SET('None',(#382,#383,#384));
#36=SURFACE_STYLE_USAGE(.BOTH.,#37);
#37=SURFACE_SIDE_STYLE('',(#38));
#38=SURFACE_STYLE_FILL_AREA(#39);
#39=FILL_AREA_STYLE('',(#40));
#40=FILL_AREA_STYLE_COLOUR('',#263);
#41=MANIFOLD_SOLID_BREP('NOCUT',#42);
#42=CLOSED_SHELL('',(#60,#61,#62,#63,#64,#65,#66,#67,#68,#69,#70,#71,#72,
#73,#74,#75,#76,#77));
#43=TOROIDAL_SURFACE('',#283,2.425,0.2);
#44=TOROIDAL_SURFACE('',#287,2.20737450454426,0.799999999999997);
#45=TOROIDAL_SURFACE('',#295,3.44813469186403,0.2);
#46=TOROIDAL_SURFACE('',#299,3.44813469186403,0.2);
#47=VERTEX_LOOP('',#189);
#48=FACE_OUTER_BOUND('',#121,.T.);
#49=PLANE('',#274);
#50=PLANE('',#276);
#51=CONICAL_SURFACE('',#272,15.996,10.);
#52=CONICAL_SURFACE('',#277,14.496,45.);
#53=CONICAL_SURFACE('',#279,4.44089209850063E-16,59.0000000000001);
#54=CONICAL_SURFACE('',#285,2.3732361909795,74.9999999999912);
#55=CONICAL_SURFACE('',#289,2.72160459229349,49.9999999999992);
#56=CONICAL_SURFACE('',#291,2.59027234429821,5.99999999999999);
#57=CONICAL_SURFACE('',#293,3.13,74.9999999999999);
#58=CONICAL_SURFACE('',#301,3.54813469186403,2.00000000000002);
#59=CONICAL_SURFACE('',#302,3.59003961525413,45.);
#60=ADVANCED_FACE('FP_EH_SU1',(#81,#82),#78,.T.);
#61=ADVANCED_FACE('FP_EH_SU3',(#83,#84),#51,.T.);
#62=ADVANCED_FACE('FP_EH_SU4',(#85,#86),#49,.T.);
#63=ADVANCED_FACE('',(#48),#50,.F.);
#64=ADVANCED_FACE('',(#87,#88),#52,.T.);
#65=ADVANCED_FACE('',(#89,#90),#53,.F.);
#66=ADVANCED_FACE('DCH3',(#91,#92),#79,.F.);
#67=ADVANCED_FACE('',(#93,#94),#43,.T.);
#68=ADVANCED_FACE('',(#95,#96),#54,.F.);
#69=ADVANCED_FACE('',(#97,#98),#44,.F.);
#70=ADVANCED_FACE('',(#99,#100),#55,.F.);
#71=ADVANCED_FACE('TSALN',(#101,#102),#56,.F.);
#72=ADVANCED_FACE('',(#103,#104),#57,.F.);
#73=ADVANCED_FACE('',(#105,#106),#45,.F.);
#74=ADVANCED_FACE('DCH2',(#107,#108),#80,.F.);
#75=ADVANCED_FACE('',(#109,#110),#46,.F.);
#76=ADVANCED_FACE('TSAN',(#111,#112),#58,.F.);
#77=ADVANCED_FACE('DCH4',(#113,#114),#59,.F.);
#78=CYLINDRICAL_SURFACE('',#270,15.996);
#79=CYLINDRICAL_SURFACE('',#281,2.225);
#80=CYLINDRICAL_SURFACE('',#297,3.64813469186403);
#81=FACE_BOUND('',#115,.T.);
#82=FACE_BOUND('',#116,.T.);
#83=FACE_BOUND('',#117,.T.);
#84=FACE_BOUND('',#118,.T.);
#85=FACE_BOUND('',#119,.T.);
#86=FACE_BOUND('',#120,.T.);
#87=FACE_BOUND('',#122,.T.);
#88=FACE_BOUND('',#123,.T.);
#89=FACE_BOUND('',#124,.T.);
#90=FACE_BOUND('',#47,.T.);
#91=FACE_BOUND('',#125,.T.);
#92=FACE_BOUND('',#126,.T.);
#93=FACE_BOUND('',#127,.T.);
#94=FACE_BOUND('',#128,.T.);
#95=FACE_BOUND('',#129,.T.);
#96=FACE_BOUND('',#130,.T.);
#97=FACE_BOUND('',#131,.T.);
#98=FACE_BOUND('',#132,.T.);
#99=FACE_BOUND('',#133,.T.);
#100=FACE_BOUND('',#134,.T.);
#101=FACE_BOUND('',#135,.T.);
#102=FACE_BOUND('',#136,.T.);
#103=FACE_BOUND('',#137,.T.);
#104=FACE_BOUND('',#138,.T.);
#105=FACE_BOUND('',#139,.T.);
#106=FACE_BOUND('',#140,.T.);
#107=FACE_BOUND('',#141,.T.);
#108=FACE_BOUND('',#142,.T.);
#109=FACE_BOUND('',#143,.T.);
#110=FACE_BOUND('',#144,.T.);
#111=FACE_BOUND('',#145,.T.);
#112=FACE_BOUND('',#146,.T.);
#113=FACE_BOUND('',#147,.T.);
#114=FACE_BOUND('',#148,.T.);
#115=EDGE_LOOP('',(#149));
#116=EDGE_LOOP('',(#150));
#117=EDGE_LOOP('',(#151));
#118=EDGE_LOOP('',(#152));
#119=EDGE_LOOP('',(#153));
#120=EDGE_LOOP('',(#154));
#121=EDGE_LOOP('',(#155));
#122=EDGE_LOOP('',(#156));
#123=EDGE_LOOP('',(#157));
#124=EDGE_LOOP('',(#158));
#125=EDGE_LOOP('',(#159));
#126=EDGE_LOOP('',(#160));
#127=EDGE_LOOP('',(#161));
#128=EDGE_LOOP('',(#162));
#129=EDGE_LOOP('',(#163));
#130=EDGE_LOOP('',(#164));
#131=EDGE_LOOP('',(#165));
#132=EDGE_LOOP('',(#166));
#133=EDGE_LOOP('',(#167));
#134=EDGE_LOOP('',(#168));
#135=EDGE_LOOP('',(#169));
#136=EDGE_LOOP('',(#170));
#137=EDGE_LOOP('',(#171));
#138=EDGE_LOOP('',(#172));
#139=EDGE_LOOP('',(#173));
#140=EDGE_LOOP('',(#174));
#141=EDGE_LOOP('',(#175));
#142=EDGE_LOOP('',(#176));
#143=EDGE_LOOP('',(#177));
#144=EDGE_LOOP('',(#178));
#145=EDGE_LOOP('',(#179));
#146=EDGE_LOOP('',(#180));
#147=EDGE_LOOP('',(#181));
#148=EDGE_LOOP('',(#182));
#149=ORIENTED_EDGE('',*,*,#201,.T.);
#150=ORIENTED_EDGE('',*,*,#202,.T.);
#151=ORIENTED_EDGE('',*,*,#203,.T.);
#152=ORIENTED_EDGE('',*,*,#201,.F.);
#153=ORIENTED_EDGE('',*,*,#204,.F.);
#154=ORIENTED_EDGE('',*,*,#203,.F.);
#155=ORIENTED_EDGE('',*,*,#205,.F.);
#156=ORIENTED_EDGE('',*,*,#202,.F.);
#157=ORIENTED_EDGE('',*,*,#205,.T.);
#158=ORIENTED_EDGE('',*,*,#206,.T.);
#159=ORIENTED_EDGE('',*,*,#207,.T.);
#160=ORIENTED_EDGE('',*,*,#206,.F.);
#161=ORIENTED_EDGE('',*,*,#208,.T.);
#162=ORIENTED_EDGE('',*,*,#207,.F.);
#163=ORIENTED_EDGE('',*,*,#209,.T.);
#164=ORIENTED_EDGE('',*,*,#208,.F.);
#165=ORIENTED_EDGE('',*,*,#210,.T.);
#166=ORIENTED_EDGE('',*,*,#209,.F.);
#167=ORIENTED_EDGE('',*,*,#211,.T.);
#168=ORIENTED_EDGE('',*,*,#210,.F.);
#169=ORIENTED_EDGE('',*,*,#212,.T.);
#170=ORIENTED_EDGE('',*,*,#211,.F.);
#171=ORIENTED_EDGE('',*,*,#213,.T.);
#172=ORIENTED_EDGE('',*,*,#212,.F.);
#173=ORIENTED_EDGE('',*,*,#214,.T.);
#174=ORIENTED_EDGE('',*,*,#213,.F.);
#175=ORIENTED_EDGE('',*,*,#215,.T.);
#176=ORIENTED_EDGE('',*,*,#214,.F.);
#177=ORIENTED_EDGE('',*,*,#216,.T.);
#178=ORIENTED_EDGE('',*,*,#215,.F.);
#179=ORIENTED_EDGE('',*,*,#217,.T.);
#180=ORIENTED_EDGE('',*,*,#216,.F.);
#181=ORIENTED_EDGE('',*,*,#204,.T.);
#182=ORIENTED_EDGE('',*,*,#217,.F.);
#183=VERTEX_POINT('',#389);
#184=VERTEX_POINT('',#391);
#185=VERTEX_POINT('',#394);
#186=VERTEX_POINT('',#397);
#187=VERTEX_POINT('',#400);
#188=VERTEX_POINT('',#404);
#189=VERTEX_POINT('',#405);
#190=VERTEX_POINT('',#408);
#191=VERTEX_POINT('',#411);
#192=VERTEX_POINT('',#414);
#193=VERTEX_POINT('',#417);
#194=VERTEX_POINT('',#420);
#195=VERTEX_POINT('',#423);
#196=VERTEX_POINT('',#426);
#197=VERTEX_POINT('',#429);
#198=VERTEX_POINT('',#432);
#199=VERTEX_POINT('',#435);
#200=VERTEX_POINT('',#438);
#201=EDGE_CURVE('',#183,#183,#218,.T.);
#202=EDGE_CURVE('',#184,#184,#219,.T.);
#203=EDGE_CURVE('',#185,#185,#220,.T.);
#204=EDGE_CURVE('',#186,#186,#221,.T.);
#205=EDGE_CURVE('',#187,#187,#222,.T.);
#206=EDGE_CURVE('',#188,#188,#223,.T.);
#207=EDGE_CURVE('',#190,#190,#224,.T.);
#208=EDGE_CURVE('',#191,#191,#225,.T.);
#209=EDGE_CURVE('',#192,#192,#226,.T.);
#210=EDGE_CURVE('',#193,#193,#227,.T.);
#211=EDGE_CURVE('',#194,#194,#228,.T.);
#212=EDGE_CURVE('',#195,#195,#229,.T.);
#213=EDGE_CURVE('',#196,#196,#230,.T.);
#214=EDGE_CURVE('',#197,#197,#231,.T.);
#215=EDGE_CURVE('',#198,#198,#232,.T.);
#216=EDGE_CURVE('',#199,#199,#233,.T.);
#217=EDGE_CURVE('',#200,#200,#234,.T.);
#218=CIRCLE('',#268,15.996);
#219=CIRCLE('',#269,15.996);
#220=CIRCLE('',#271,4.79999999999997);
#221=CIRCLE('',#273,4.09003961525413);
#222=CIRCLE('',#275,14.496);
#223=CIRCLE('',#278,2.225);
#224=CIRCLE('',#280,2.225);
#225=CIRCLE('',#282,2.3732361909795);
#226=CIRCLE('',#284,2.41442974062627);
#227=CIRCLE('',#286,2.72160459229349);
#228=CIRCLE('',#288,2.59027234429821);
#229=CIRCLE('',#290,3.13);
#230=CIRCLE('',#292,3.49989850088453);
#231=CIRCLE('',#294,3.64813469186403);
#232=CIRCLE('',#296,3.64813469186403);
#233=CIRCLE('',#298,3.54813469186403);
#234=CIRCLE('',#300,3.59003961525413);
#235=CURVE_STYLE('',#238,POSITIVE_LENGTH_MEASURE(0.18),#262);
#236=CURVE_STYLE('',#239,POSITIVE_LENGTH_MEASURE(0.18),#262);
#237=CURVE_STYLE('',#240,POSITIVE_LENGTH_MEASURE(0.18),#262);
#238=DRAUGHTING_PRE_DEFINED_CURVE_FONT('continuous');
#239=DRAUGHTING_PRE_DEFINED_CURVE_FONT('continuous');
#240=DRAUGHTING_PRE_DEFINED_CURVE_FONT('continuous');
#241=PRESENTATION_LAYER_ASSIGNMENT('1','Layer 1',(#382,#383,#384,#265,#266,
#267,#41));
#242=STYLED_ITEM('',(#249),#382);
#243=STYLED_ITEM('',(#250),#383);
#244=STYLED_ITEM('',(#251),#384);
#245=STYLED_ITEM('',(#252),#265);
#246=STYLED_ITEM('',(#253),#266);
#247=STYLED_ITEM('',(#254),#267);
#248=STYLED_ITEM('',(#255),#41);
#249=PRESENTATION_STYLE_ASSIGNMENT((#256));
#250=PRESENTATION_STYLE_ASSIGNMENT((#257));
#251=PRESENTATION_STYLE_ASSIGNMENT((#258));
#252=PRESENTATION_STYLE_ASSIGNMENT((#235));
#253=PRESENTATION_STYLE_ASSIGNMENT((#236));
#254=PRESENTATION_STYLE_ASSIGNMENT((#237));
#255=PRESENTATION_STYLE_ASSIGNMENT((#36));
#256=POINT_STYLE('',#259,POSITIVE_LENGTH_MEASURE(3.),#262);
#257=POINT_STYLE('',#260,POSITIVE_LENGTH_MEASURE(3.),#262);
#258=POINT_STYLE('',#261,POSITIVE_LENGTH_MEASURE(3.),#262);
#259=PRE_DEFINED_POINT_MARKER_SYMBOL('plus');
#260=PRE_DEFINED_POINT_MARKER_SYMBOL('plus');
#261=PRE_DEFINED_POINT_MARKER_SYMBOL('plus');
#262=COLOUR_RGB('Strong Stone',0.576470588235294,0.54508278019379,0.392156862745098);
#263=COLOUR_RGB('Medium Gray',0.490196078431373,0.490196078431373,0.490196078431373);
#264=AXIS2_PLACEMENT_3D('',#381,#303,#304);
#265=AXIS2_PLACEMENT_3D('PCS',#385,#305,#306);
#266=AXIS2_PLACEMENT_3D('MCS',#386,#307,#308);
#267=AXIS2_PLACEMENT_3D('CSW',#387,#309,#310);
#268=AXIS2_PLACEMENT_3D('',#388,#311,#312);
#269=AXIS2_PLACEMENT_3D('',#390,#313,#314);
#270=AXIS2_PLACEMENT_3D('',#392,#315,#316);
#271=AXIS2_PLACEMENT_3D('',#393,#317,#318);
#272=AXIS2_PLACEMENT_3D('',#395,#319,#320);
#273=AXIS2_PLACEMENT_3D('',#396,#321,#322);
#274=AXIS2_PLACEMENT_3D('',#398,#323,#324);
#275=AXIS2_PLACEMENT_3D('',#399,#325,#326);
#276=AXIS2_PLACEMENT_3D('',#401,#327,#328);
#277=AXIS2_PLACEMENT_3D('',#402,#329,#330);
#278=AXIS2_PLACEMENT_3D('',#403,#331,#332);
#279=AXIS2_PLACEMENT_3D('',#406,#333,#334);
#280=AXIS2_PLACEMENT_3D('',#407,#335,#336);
#281=AXIS2_PLACEMENT_3D('',#409,#337,#338);
#282=AXIS2_PLACEMENT_3D('',#410,#339,#340);
#283=AXIS2_PLACEMENT_3D('',#412,#341,#342);
#284=AXIS2_PLACEMENT_3D('',#413,#343,#344);
#285=AXIS2_PLACEMENT_3D('',#415,#345,#346);
#286=AXIS2_PLACEMENT_3D('',#416,#347,#348);
#287=AXIS2_PLACEMENT_3D('',#418,#349,#350);
#288=AXIS2_PLACEMENT_3D('',#419,#351,#352);
#289=AXIS2_PLACEMENT_3D('',#421,#353,#354);
#290=AXIS2_PLACEMENT_3D('',#422,#355,#356);
#291=AXIS2_PLACEMENT_3D('',#424,#357,#358);
#292=AXIS2_PLACEMENT_3D('',#425,#359,#360);
#293=AXIS2_PLACEMENT_3D('',#427,#361,#362);
#294=AXIS2_PLACEMENT_3D('',#428,#363,#364);
#295=AXIS2_PLACEMENT_3D('',#430,#365,#366);
#296=AXIS2_PLACEMENT_3D('',#431,#367,#368);
#297=AXIS2_PLACEMENT_3D('',#433,#369,#370);
#298=AXIS2_PLACEMENT_3D('',#434,#371,#372);
#299=AXIS2_PLACEMENT_3D('',#436,#373,#374);
#300=AXIS2_PLACEMENT_3D('',#437,#375,#376);
#301=AXIS2_PLACEMENT_3D('',#439,#377,#378);
#302=AXIS2_PLACEMENT_3D('',#440,#379,#380);
#303=DIRECTION('',(0.,0.,1.));
#304=DIRECTION('',(1.,0.,0.));
#305=DIRECTION('',(0.,0.,1.));
#306=DIRECTION('',(1.,0.,0.));
#307=DIRECTION('',(0.,0.,1.));
#308=DIRECTION('',(1.,0.,0.));
#309=DIRECTION('',(0.,0.,1.));
#310=DIRECTION('',(1.,0.,0.));
#311=DIRECTION('',(-2.85823374424774E-16,0.,1.));
#312=DIRECTION('',(-1.,0.,0.));
#313=DIRECTION('',(0.,0.,-1.));
#314=DIRECTION('',(1.,0.,0.));
#315=DIRECTION('',(-2.85823374424774E-16,0.,1.));
#316=DIRECTION('',(-1.,0.,-4.33789316323283E-16));
#317=DIRECTION('',(-2.85823374424774E-16,0.,1.));
#318=DIRECTION('',(-1.,0.,0.));
#319=DIRECTION('',(-2.85823374424774E-16,0.,1.));
#320=DIRECTION('',(-1.,0.,-2.88635040008064E-16));
#321=DIRECTION('',(0.,0.,-1.));
#322=DIRECTION('',(1.,0.,0.));
#323=DIRECTION('',(2.85823374424774E-16,0.,-1.));
#324=DIRECTION('',(1.,0.,2.77555756156289E-16));
#325=DIRECTION('',(0.,0.,-1.));
#326=DIRECTION('',(1.,0.,0.));
#327=DIRECTION('',(0.,0.,-1.));
#328=DIRECTION('',(1.,0.,0.));
#329=DIRECTION('',(0.,0.,-1.));
#330=DIRECTION('',(1.,0.,0.));
#331=DIRECTION('',(0.,0.,-1.));
#332=DIRECTION('',(1.,0.,0.));
#333=DIRECTION('',(0.,0.,-1.));
#334=DIRECTION('',(1.,0.,1.6677232345873E-17));
#335=DIRECTION('',(0.,0.,-1.));
#336=DIRECTION('',(1.,0.,0.));
#337=DIRECTION('',(0.,0.,-1.));
#338=DIRECTION('',(1.,0.,0.));
#339=DIRECTION('',(0.,0.,-1.));
#340=DIRECTION('',(1.,0.,0.));
#341=DIRECTION('',(0.,0.,-1.));
#342=DIRECTION('',(1.,0.,0.));
#343=DIRECTION('',(0.,0.,-1.));
#344=DIRECTION('',(1.,0.,0.));
#345=DIRECTION('',(0.,0.,-1.));
#346=DIRECTION('',(1.,0.,-1.4864715570812E-17));
#347=DIRECTION('',(0.,0.,-1.));
#348=DIRECTION('',(1.,0.,0.));
#349=DIRECTION('',(0.,0.,-1.));
#350=DIRECTION('',(1.,0.,0.));
#351=DIRECTION('',(0.,0.,-1.));
#352=DIRECTION('',(1.,0.,0.));
#353=DIRECTION('',(0.,0.,1.));
#354=DIRECTION('',(-1.,0.,2.32366278353924E-17));
#355=DIRECTION('',(0.,0.,-1.));
#356=DIRECTION('',(1.,0.,0.));
#357=DIRECTION('',(0.,0.,-1.));
#358=DIRECTION('',(1.,0.,0.));
#359=DIRECTION('',(0.,0.,-1.));
#360=DIRECTION('',(1.,0.,0.));
#361=DIRECTION('',(0.,0.,-1.));
#362=DIRECTION('',(1.,0.,2.22925558725719E-17));
#363=DIRECTION('',(0.,0.,-1.));
#364=DIRECTION('',(1.,0.,0.));
#365=DIRECTION('',(0.,0.,-1.));
#366=DIRECTION('',(1.,0.,0.));
#367=DIRECTION('',(0.,0.,-1.));
#368=DIRECTION('',(1.,0.,0.));
#369=DIRECTION('',(0.,0.,-1.));
#370=DIRECTION('',(1.,0.,0.));
#371=DIRECTION('',(0.,0.,-1.));
#372=DIRECTION('',(1.,0.,0.));
#373=DIRECTION('',(0.,0.,-1.));
#374=DIRECTION('',(1.,0.,0.));
#375=DIRECTION('',(0.,0.,-1.));
#376=DIRECTION('',(1.,0.,0.));
#377=DIRECTION('',(0.,0.,-1.));
#378=DIRECTION('',(1.,0.,1.44301358225082E-15));
#379=DIRECTION('',(0.,0.,-1.));
#380=DIRECTION('',(1.,0.,-5.53125768890045E-17));
#381=CARTESIAN_POINT('',(0.,0.,0.));
#382=CARTESIAN_POINT('',(0.,0.,0.));
#383=CARTESIAN_POINT('',(0.,0.,-60.));
#384=CARTESIAN_POINT('',(0.,0.,-250.));
#385=CARTESIAN_POINT('',(0.,0.,0.));
#386=CARTESIAN_POINT('',(0.,0.,-60.));
#387=CARTESIAN_POINT('',(0.,0.,-250.));
#388=CARTESIAN_POINT('',(1.33817868806159E-14,0.,-186.50432874756));
#389=CARTESIAN_POINT('',(-15.996,0.,-186.50432874756));
#390=CARTESIAN_POINT('',(0.,0.,-1.5));
#391=CARTESIAN_POINT('',(15.996,0.,-1.5));
#392=CARTESIAN_POINT('',(-2.22044604925031E-14,0.,-62.));
#393=CARTESIAN_POINT('',(3.15303338993544E-14,0.,-250.));
#394=CARTESIAN_POINT('',(-4.79999999999994,0.,-250.));
#395=CARTESIAN_POINT('',(1.33817868806159E-14,0.,-186.50432874756));
#396=CARTESIAN_POINT('',(0.,0.,-250.));
#397=CARTESIAN_POINT('',(4.09003961525413,0.,-250.));
#398=CARTESIAN_POINT('',(4.8,0.,-250.));
#399=CARTESIAN_POINT('',(0.,0.,0.));
#400=CARTESIAN_POINT('',(14.496,0.,0.));
#401=CARTESIAN_POINT('',(0.,0.,0.));
#402=CARTESIAN_POINT('',(0.,0.,0.));
#403=CARTESIAN_POINT('',(0.,0.,-237.));
#404=CARTESIAN_POINT('',(2.225,0.,-237.));
#405=CARTESIAN_POINT('',(-4.44089209850063E-16,0.,-235.663085122664));
#406=CARTESIAN_POINT('',(0.,0.,-235.663085122664));
#407=CARTESIAN_POINT('',(0.,0.,-240.3));
#408=CARTESIAN_POINT('',(2.225,0.,-240.3));
#409=CARTESIAN_POINT('',(0.,0.,-250.));
#410=CARTESIAN_POINT('',(0.,0.,-240.493185165258));
#411=CARTESIAN_POINT('',(2.3732361909795,0.,-240.493185165258));
#412=CARTESIAN_POINT('',(0.,0.,-240.3));
#413=CARTESIAN_POINT('',(0.,0.,-240.504222943619));
#414=CARTESIAN_POINT('',(2.41442974062627,0.,-240.504222943619));
#415=CARTESIAN_POINT('',(0.,0.,-240.493185165258));
#416=CARTESIAN_POINT('',(0.,0.,-241.889799159145));
#417=CARTESIAN_POINT('',(2.72160459229349,0.,-241.889799159145));
#418=CARTESIAN_POINT('',(0.,0.,-241.27696360465));
#419=CARTESIAN_POINT('',(0.,0.,-242.));
#420=CARTESIAN_POINT('',(2.59027234429821,0.,-242.));
#421=CARTESIAN_POINT('',(0.,0.,-241.889799159145));
#422=CARTESIAN_POINT('',(0.,0.,-247.13516562237));
#423=CARTESIAN_POINT('',(3.13,0.,-247.13516562237));
#424=CARTESIAN_POINT('',(0.,0.,-242.));
#425=CARTESIAN_POINT('',(0.,0.,-247.234279626963));
#426=CARTESIAN_POINT('',(3.49989850088453,0.,-247.234279626963));
#427=CARTESIAN_POINT('',(0.,0.,-247.13516562237));
#428=CARTESIAN_POINT('',(0.,0.,-247.427464792221));
#429=CARTESIAN_POINT('',(3.64813469186403,0.,-247.427464792221));
#430=CARTESIAN_POINT('',(0.,0.,-247.427464792221));
#431=CARTESIAN_POINT('',(0.,0.,-248.126794919243));
#432=CARTESIAN_POINT('',(3.64813469186403,0.,-248.126794919243));
#433=CARTESIAN_POINT('',(0.,0.,-250.));
#434=CARTESIAN_POINT('',(0.,0.,-248.3));
#435=CARTESIAN_POINT('',(3.54813469186403,0.,-248.3));
#436=CARTESIAN_POINT('',(0.,0.,-248.126794919243));
#437=CARTESIAN_POINT('',(0.,0.,-249.5));
#438=CARTESIAN_POINT('',(3.59003961525413,0.,-249.5));
#439=CARTESIAN_POINT('',(0.,0.,-248.3));
#440=CARTESIAN_POINT('',(0.,0.,-249.5));
#441=MECHANICAL_DESIGN_GEOMETRIC_PRESENTATION_REPRESENTATION('',(#242,#243,
#244,#245,#246,#247,#248),#442);
#442=(
GEOMETRIC_REPRESENTATION_CONTEXT(3)
GLOBAL_UNCERTAINTY_ASSIGNED_CONTEXT((#443))
GLOBAL_UNIT_ASSIGNED_CONTEXT((#449,#445,#444))
REPRESENTATION_CONTEXT('XE10320J6-250-10','TOP_LEVEL_ASSEMBLY_PART')
);
#443=UNCERTAINTY_MEASURE_WITH_UNIT(LENGTH_MEASURE(2.E-5),#449,
'DISTANCE_ACCURACY_VALUE','Maximum Tolerance applied to model');
#444=(
NAMED_UNIT(*)
SI_UNIT($,.STERADIAN.)
SOLID_ANGLE_UNIT()
);
#445=(
CONVERSION_BASED_UNIT('DEGREE',#447)
NAMED_UNIT(#446)
PLANE_ANGLE_UNIT()
);
#446=DIMENSIONAL_EXPONENTS(0.,0.,0.,0.,0.,0.,0.);
#447=PLANE_ANGLE_MEASURE_WITH_UNIT(PLANE_ANGLE_MEASURE(0.0174532925),#448);
#448=(
NAMED_UNIT(*)
PLANE_ANGLE_UNIT()
SI_UNIT($,.RADIAN.)
);
#449=(
LENGTH_UNIT()
NAMED_UNIT(*)
SI_UNIT(.MILLI.,.METRE.)
);
ENDSEC;
END-ISO-10303-21;
