ISO-10303-21;
HEADER;
/* Generated by software containing ST-Developer
 * from STEP Tools, Inc. (www.steptools.com) 
 */
/* OPTION: using custom schema-name function */

FILE_DESCRIPTION(
/* description */ (''),
/* implementation_level */ '2;1');

FILE_NAME(
/* name */ 'XE12200J4-155-05.0S.stp',
/* time_stamp */ '2022-07-28T08:55:20+05:00',
/* author */ (''),
/* organization */ (''),
/* preprocessor_version */ 'ST-DEVELOPER v16.7',
/* originating_system */ 'SIEMENS PLM Software NX 12.0',
/* authorisation */ '');

FILE_SCHEMA (('AUTOMOTIVE_DESIGN { 1 0 10303 214 3 1 1 1 }'));
ENDSEC;

DATA;
#10=CONSTRUCTIVE_GEOMETRY_REPRESENTATION_RELATIONSHIP(
'supplemental geometry','',#34,#11);
#11=CONSTRUCTIVE_GEOMETRY_REPRESENTATION('supplemental geometry',(#254,
#255,#256),#422);
#12=GEOMETRICALLY_BOUNDED_WIREFRAME_SHAPE_REPRESENTATION(
'inpu2A3062D0pm9n-None',(#35),#422);
#13=PROPERTY_DEFINITION_REPRESENTATION(#17,#15);
#14=PROPERTY_DEFINITION_REPRESENTATION(#18,#16);
#15=REPRESENTATION('',(#19),#422);
#16=REPRESENTATION('',(#20),#422);
#17=PROPERTY_DEFINITION('pmi validation property','',#25);
#18=PROPERTY_DEFINITION('pmi validation property','',#25);
#19=VALUE_REPRESENTATION_ITEM('number of annotations',COUNT_MEASURE(0.));
#20=VALUE_REPRESENTATION_ITEM('number of views',COUNT_MEASURE(0.));
#21=SHAPE_REPRESENTATION_RELATIONSHIP('None',
'relationship between inpu2A3062D0pm9n-None and inpu2A3062D0pm9n-None',
#34,#23);
#22=SHAPE_REPRESENTATION_RELATIONSHIP('None',
'relationship between inpu2A3062D0pm9n-None and inpu2A3062D0pm9n-None',
#34,#12);
#23=ADVANCED_BREP_SHAPE_REPRESENTATION('inpu2A3062D0pm9n-None',(#41),#422);
#24=SHAPE_DEFINITION_REPRESENTATION(#25,#34);
#25=PRODUCT_DEFINITION_SHAPE('','',#26);
#26=PRODUCT_DEFINITION(' ','',#28,#27);
#27=PRODUCT_DEFINITION_CONTEXT('part definition',#33,'design');
#28=PRODUCT_DEFINITION_FORMATION_WITH_SPECIFIED_SOURCE(' ',' ',#30,
 .NOT_KNOWN.);
#29=PRODUCT_RELATED_PRODUCT_CATEGORY('part','',(#30));
#30=PRODUCT('inpu2A3062D0pm9n','inpu2A3062D0pm9n',' ',(#31));
#31=PRODUCT_CONTEXT(' ',#33,'mechanical');
#32=APPLICATION_PROTOCOL_DEFINITION('international standard',
'automotive_design',2010,#33);
#33=APPLICATION_CONTEXT(
'core data for automotive mechanical design processes');
#34=SHAPE_REPRESENTATION('inpu2A3062D0pm9n-None',(#253),#422);
#35=GEOMETRIC_CURVE_SET('None',(#365,#366,#367));
#36=SURFACE_STYLE_USAGE(.BOTH.,#37);
#37=SURFACE_SIDE_STYLE('',(#38));
#38=SURFACE_STYLE_FILL_AREA(#39);
#39=FILL_AREA_STYLE('',(#40));
#40=FILL_AREA_STYLE_COLOUR('',#252);
#41=MANIFOLD_SOLID_BREP('NOCUT',#42);
#42=CLOSED_SHELL('',(#52,#53,#54,#55,#56,#57,#58,#59,#60,#61,#62,#63,#64,
#65,#66,#67,#68));
#43=TOROIDAL_SURFACE('',#274,2.81495321756222,1.);
#44=TOROIDAL_SURFACE('',#282,4.1301584610165,0.5);
#45=TOROIDAL_SURFACE('',#286,4.1301584610165,0.500000000000005);
#46=FACE_OUTER_BOUND('',#118,.T.);
#47=PLANE('',#265);
#48=PLANE('',#267);
#49=CYLINDRICAL_SURFACE('',#261,9.99675);
#50=CYLINDRICAL_SURFACE('',#270,2.775);
#51=CYLINDRICAL_SURFACE('',#284,4.63015846101651);
#52=ADVANCED_FACE('CLONE_TP_FACE',(#79,#80),#69,.F.);
#53=ADVANCED_FACE('CLONE_TP_FACE',(#81,#82),#49,.T.);
#54=ADVANCED_FACE('CLONE_TP_FACE',(#83,#84),#70,.T.);
#55=ADVANCED_FACE('CLONE_TP_FACE',(#85,#86),#47,.T.);
#56=ADVANCED_FACE('CLONE_TP_FACE',(#46),#48,.F.);
#57=ADVANCED_FACE('CLONE_TP_FACE',(#87,#88),#71,.T.);
#58=ADVANCED_FACE('CLONE_TP_FACE',(#89,#90),#50,.F.);
#59=ADVANCED_FACE('CLONE_TP_FACE',(#91,#92),#72,.F.);
#60=ADVANCED_FACE('CLONE_TP_FACE',(#93,#94),#43,.F.);
#61=ADVANCED_FACE('CLONE_TP_FACE',(#95,#96),#73,.F.);
#62=ADVANCED_FACE('CLONE_TP_FACE',(#97,#98),#74,.F.);
#63=ADVANCED_FACE('CLONE_TP_FACE',(#99,#100),#75,.F.);
#64=ADVANCED_FACE('CLONE_TP_FACE',(#101,#102),#44,.F.);
#65=ADVANCED_FACE('CLONE_TP_FACE',(#103,#104),#51,.F.);
#66=ADVANCED_FACE('CLONE_TP_FACE',(#105,#106),#45,.F.);
#67=ADVANCED_FACE('CLONE_TP_FACE',(#107,#108),#76,.F.);
#68=ADVANCED_FACE('CLONE_TP_FACE',(#109,#110),#77,.F.);
#69=CONICAL_SURFACE('',#258,0.,59.);
#70=CONICAL_SURFACE('',#263,9.99674999999999,5.00000000000001);
#71=CONICAL_SURFACE('',#268,8.99675000000001,45.);
#72=CONICAL_SURFACE('',#272,2.775,75.0000000000006);
#73=CONICAL_SURFACE('',#276,3.75464583834813,20.0000000000001);
#74=CONICAL_SURFACE('',#278,3.49549967072475,6.);
#75=CONICAL_SURFACE('',#280,4.,70.0000000000001);
#76=CONICAL_SURFACE('',#288,4.5301584610165,2.00000000000003);
#77=CONICAL_SURFACE('',#289,4.58253961525413,47.);
#78=VERTEX_LOOP('',#176);
#79=FACE_BOUND('',#111,.T.);
#80=FACE_BOUND('',#78,.T.);
#81=FACE_BOUND('',#112,.T.);
#82=FACE_BOUND('',#113,.T.);
#83=FACE_BOUND('',#114,.T.);
#84=FACE_BOUND('',#115,.T.);
#85=FACE_BOUND('',#116,.T.);
#86=FACE_BOUND('',#117,.T.);
#87=FACE_BOUND('',#119,.T.);
#88=FACE_BOUND('',#120,.T.);
#89=FACE_BOUND('',#121,.T.);
#90=FACE_BOUND('',#122,.T.);
#91=FACE_BOUND('',#123,.T.);
#92=FACE_BOUND('',#124,.T.);
#93=FACE_BOUND('',#125,.T.);
#94=FACE_BOUND('',#126,.T.);
#95=FACE_BOUND('',#127,.T.);
#96=FACE_BOUND('',#128,.T.);
#97=FACE_BOUND('',#129,.T.);
#98=FACE_BOUND('',#130,.T.);
#99=FACE_BOUND('',#131,.T.);
#100=FACE_BOUND('',#132,.T.);
#101=FACE_BOUND('',#133,.T.);
#102=FACE_BOUND('',#134,.T.);
#103=FACE_BOUND('',#135,.T.);
#104=FACE_BOUND('',#136,.T.);
#105=FACE_BOUND('',#137,.T.);
#106=FACE_BOUND('',#138,.T.);
#107=FACE_BOUND('',#139,.T.);
#108=FACE_BOUND('',#140,.T.);
#109=FACE_BOUND('',#141,.T.);
#110=FACE_BOUND('',#142,.T.);
#111=EDGE_LOOP('',(#143));
#112=EDGE_LOOP('',(#144));
#113=EDGE_LOOP('',(#145));
#114=EDGE_LOOP('',(#146));
#115=EDGE_LOOP('',(#147));
#116=EDGE_LOOP('',(#148));
#117=EDGE_LOOP('',(#149));
#118=EDGE_LOOP('',(#150));
#119=EDGE_LOOP('',(#151));
#120=EDGE_LOOP('',(#152));
#121=EDGE_LOOP('',(#153));
#122=EDGE_LOOP('',(#154));
#123=EDGE_LOOP('',(#155));
#124=EDGE_LOOP('',(#156));
#125=EDGE_LOOP('',(#157));
#126=EDGE_LOOP('',(#158));
#127=EDGE_LOOP('',(#159));
#128=EDGE_LOOP('',(#160));
#129=EDGE_LOOP('',(#161));
#130=EDGE_LOOP('',(#162));
#131=EDGE_LOOP('',(#163));
#132=EDGE_LOOP('',(#164));
#133=EDGE_LOOP('',(#165));
#134=EDGE_LOOP('',(#166));
#135=EDGE_LOOP('',(#167));
#136=EDGE_LOOP('',(#168));
#137=EDGE_LOOP('',(#169));
#138=EDGE_LOOP('',(#170));
#139=EDGE_LOOP('',(#171));
#140=EDGE_LOOP('',(#172));
#141=EDGE_LOOP('',(#173));
#142=EDGE_LOOP('',(#174));
#143=ORIENTED_EDGE('',*,*,#192,.F.);
#144=ORIENTED_EDGE('',*,*,#193,.T.);
#145=ORIENTED_EDGE('',*,*,#194,.T.);
#146=ORIENTED_EDGE('',*,*,#195,.T.);
#147=ORIENTED_EDGE('',*,*,#193,.F.);
#148=ORIENTED_EDGE('',*,*,#196,.F.);
#149=ORIENTED_EDGE('',*,*,#195,.F.);
#150=ORIENTED_EDGE('',*,*,#197,.F.);
#151=ORIENTED_EDGE('',*,*,#194,.F.);
#152=ORIENTED_EDGE('',*,*,#197,.T.);
#153=ORIENTED_EDGE('',*,*,#198,.F.);
#154=ORIENTED_EDGE('',*,*,#192,.T.);
#155=ORIENTED_EDGE('',*,*,#199,.F.);
#156=ORIENTED_EDGE('',*,*,#198,.T.);
#157=ORIENTED_EDGE('',*,*,#200,.F.);
#158=ORIENTED_EDGE('',*,*,#199,.T.);
#159=ORIENTED_EDGE('',*,*,#201,.F.);
#160=ORIENTED_EDGE('',*,*,#200,.T.);
#161=ORIENTED_EDGE('',*,*,#202,.F.);
#162=ORIENTED_EDGE('',*,*,#201,.T.);
#163=ORIENTED_EDGE('',*,*,#203,.F.);
#164=ORIENTED_EDGE('',*,*,#202,.T.);
#165=ORIENTED_EDGE('',*,*,#204,.F.);
#166=ORIENTED_EDGE('',*,*,#203,.T.);
#167=ORIENTED_EDGE('',*,*,#205,.F.);
#168=ORIENTED_EDGE('',*,*,#204,.T.);
#169=ORIENTED_EDGE('',*,*,#206,.F.);
#170=ORIENTED_EDGE('',*,*,#205,.T.);
#171=ORIENTED_EDGE('',*,*,#207,.F.);
#172=ORIENTED_EDGE('',*,*,#206,.T.);
#173=ORIENTED_EDGE('',*,*,#196,.T.);
#174=ORIENTED_EDGE('',*,*,#207,.T.);
#175=VERTEX_POINT('',#372);
#176=VERTEX_POINT('',#373);
#177=VERTEX_POINT('',#376);
#178=VERTEX_POINT('',#378);
#179=VERTEX_POINT('',#381);
#180=VERTEX_POINT('',#384);
#181=VERTEX_POINT('',#387);
#182=VERTEX_POINT('',#391);
#183=VERTEX_POINT('',#394);
#184=VERTEX_POINT('',#397);
#185=VERTEX_POINT('',#400);
#186=VERTEX_POINT('',#403);
#187=VERTEX_POINT('',#406);
#188=VERTEX_POINT('',#409);
#189=VERTEX_POINT('',#412);
#190=VERTEX_POINT('',#415);
#191=VERTEX_POINT('',#418);
#192=EDGE_CURVE('',#175,#175,#208,.T.);
#193=EDGE_CURVE('',#177,#177,#209,.T.);
#194=EDGE_CURVE('',#178,#178,#210,.T.);
#195=EDGE_CURVE('',#179,#179,#211,.T.);
#196=EDGE_CURVE('',#180,#180,#212,.T.);
#197=EDGE_CURVE('',#181,#181,#213,.T.);
#198=EDGE_CURVE('',#182,#182,#214,.T.);
#199=EDGE_CURVE('',#183,#183,#215,.T.);
#200=EDGE_CURVE('',#184,#184,#216,.T.);
#201=EDGE_CURVE('',#185,#185,#217,.T.);
#202=EDGE_CURVE('',#186,#186,#218,.T.);
#203=EDGE_CURVE('',#187,#187,#219,.T.);
#204=EDGE_CURVE('',#188,#188,#220,.T.);
#205=EDGE_CURVE('',#189,#189,#221,.T.);
#206=EDGE_CURVE('',#190,#190,#222,.T.);
#207=EDGE_CURVE('',#191,#191,#223,.T.);
#208=CIRCLE('',#257,2.775);
#209=CIRCLE('',#259,9.99674999999999);
#210=CIRCLE('',#260,9.99675000000001);
#211=CIRCLE('',#262,5.79999999999998);
#212=CIRCLE('',#264,5.11872397026647);
#213=CIRCLE('',#266,8.99675000000001);
#214=CIRCLE('',#269,2.775);
#215=CIRCLE('',#271,3.07377226266474);
#216=CIRCLE('',#273,3.75464583834813);
#217=CIRCLE('',#275,3.49549967072475);
#218=CIRCLE('',#277,4.);
#219=CIRCLE('',#279,4.30116853267934);
#220=CIRCLE('',#281,4.6301584610165);
#221=CIRCLE('',#283,4.63015846101651);
#222=CIRCLE('',#285,4.5301584610165);
#223=CIRCLE('',#287,4.58253961525413);
#224=CURVE_STYLE('',#227,POSITIVE_LENGTH_MEASURE(0.18),#251);
#225=CURVE_STYLE('',#228,POSITIVE_LENGTH_MEASURE(0.18),#251);
#226=CURVE_STYLE('',#229,POSITIVE_LENGTH_MEASURE(0.18),#251);
#227=DRAUGHTING_PRE_DEFINED_CURVE_FONT('continuous');
#228=DRAUGHTING_PRE_DEFINED_CURVE_FONT('continuous');
#229=DRAUGHTING_PRE_DEFINED_CURVE_FONT('continuous');
#230=PRESENTATION_LAYER_ASSIGNMENT('1','Layer 1',(#365,#366,#367,#254,#255,
#256,#41));
#231=STYLED_ITEM('',(#238),#365);
#232=STYLED_ITEM('',(#239),#366);
#233=STYLED_ITEM('',(#240),#367);
#234=STYLED_ITEM('',(#241),#254);
#235=STYLED_ITEM('',(#242),#255);
#236=STYLED_ITEM('',(#243),#256);
#237=STYLED_ITEM('',(#244),#41);
#238=PRESENTATION_STYLE_ASSIGNMENT((#245));
#239=PRESENTATION_STYLE_ASSIGNMENT((#246));
#240=PRESENTATION_STYLE_ASSIGNMENT((#247));
#241=PRESENTATION_STYLE_ASSIGNMENT((#224));
#242=PRESENTATION_STYLE_ASSIGNMENT((#225));
#243=PRESENTATION_STYLE_ASSIGNMENT((#226));
#244=PRESENTATION_STYLE_ASSIGNMENT((#36));
#245=POINT_STYLE('',#248,POSITIVE_LENGTH_MEASURE(3.),#251);
#246=POINT_STYLE('',#249,POSITIVE_LENGTH_MEASURE(3.),#251);
#247=POINT_STYLE('',#250,POSITIVE_LENGTH_MEASURE(3.),#251);
#248=PRE_DEFINED_POINT_MARKER_SYMBOL('plus');
#249=PRE_DEFINED_POINT_MARKER_SYMBOL('plus');
#250=PRE_DEFINED_POINT_MARKER_SYMBOL('plus');
#251=COLOUR_RGB('Strong Stone',0.576470588235294,0.54508278019379,0.392156862745098);
#252=COLOUR_RGB('Medium Gray',0.490196078431373,0.490196078431373,0.490196078431373);
#253=AXIS2_PLACEMENT_3D('',#364,#290,#291);
#254=AXIS2_PLACEMENT_3D('PCS',#368,#292,#293);
#255=AXIS2_PLACEMENT_3D('MCS',#369,#294,#295);
#256=AXIS2_PLACEMENT_3D('CSW',#370,#296,#297);
#257=AXIS2_PLACEMENT_3D('',#371,#298,#299);
#258=AXIS2_PLACEMENT_3D('',#374,#300,#301);
#259=AXIS2_PLACEMENT_3D('',#375,#302,#303);
#260=AXIS2_PLACEMENT_3D('',#377,#304,#305);
#261=AXIS2_PLACEMENT_3D('',#379,#306,#307);
#262=AXIS2_PLACEMENT_3D('',#380,#308,#309);
#263=AXIS2_PLACEMENT_3D('',#382,#310,#311);
#264=AXIS2_PLACEMENT_3D('',#383,#312,#313);
#265=AXIS2_PLACEMENT_3D('',#385,#314,#315);
#266=AXIS2_PLACEMENT_3D('',#386,#316,#317);
#267=AXIS2_PLACEMENT_3D('',#388,#318,#319);
#268=AXIS2_PLACEMENT_3D('',#389,#320,#321);
#269=AXIS2_PLACEMENT_3D('',#390,#322,#323);
#270=AXIS2_PLACEMENT_3D('',#392,#324,#325);
#271=AXIS2_PLACEMENT_3D('',#393,#326,#327);
#272=AXIS2_PLACEMENT_3D('',#395,#328,#329);
#273=AXIS2_PLACEMENT_3D('',#396,#330,#331);
#274=AXIS2_PLACEMENT_3D('',#398,#332,#333);
#275=AXIS2_PLACEMENT_3D('',#399,#334,#335);
#276=AXIS2_PLACEMENT_3D('',#401,#336,#337);
#277=AXIS2_PLACEMENT_3D('',#402,#338,#339);
#278=AXIS2_PLACEMENT_3D('',#404,#340,#341);
#279=AXIS2_PLACEMENT_3D('',#405,#342,#343);
#280=AXIS2_PLACEMENT_3D('',#407,#344,#345);
#281=AXIS2_PLACEMENT_3D('',#408,#346,#347);
#282=AXIS2_PLACEMENT_3D('',#410,#348,#349);
#283=AXIS2_PLACEMENT_3D('',#411,#350,#351);
#284=AXIS2_PLACEMENT_3D('',#413,#352,#353);
#285=AXIS2_PLACEMENT_3D('',#414,#354,#355);
#286=AXIS2_PLACEMENT_3D('',#416,#356,#357);
#287=AXIS2_PLACEMENT_3D('',#417,#358,#359);
#288=AXIS2_PLACEMENT_3D('',#419,#360,#361);
#289=AXIS2_PLACEMENT_3D('',#420,#362,#363);
#290=DIRECTION('',(0.,0.,1.));
#291=DIRECTION('',(1.,0.,0.));
#292=DIRECTION('',(0.,0.,1.));
#293=DIRECTION('',(1.,0.,0.));
#294=DIRECTION('',(0.,0.,1.));
#295=DIRECTION('',(1.,0.,0.));
#296=DIRECTION('',(0.,0.,1.));
#297=DIRECTION('',(1.,0.,0.));
#298=DIRECTION('',(0.,0.,1.));
#299=DIRECTION('',(1.,0.,0.));
#300=DIRECTION('',(0.,0.,-1.));
#301=DIRECTION('',(-1.,0.,1.66772323458731E-17));
#302=DIRECTION('',(-3.06119746595674E-16,0.,1.));
#303=DIRECTION('',(-1.,0.,0.));
#304=DIRECTION('',(0.,0.,-1.));
#305=DIRECTION('',(1.,0.,0.));
#306=DIRECTION('',(-3.06119746595674E-16,0.,1.));
#307=DIRECTION('',(1.,0.,0.));
#308=DIRECTION('',(-3.06119746595674E-16,0.,1.));
#309=DIRECTION('',(-1.,0.,0.));
#310=DIRECTION('',(-3.06119746595674E-16,0.,1.));
#311=DIRECTION('',(1.,0.,2.84715165189794E-16));
#312=DIRECTION('',(0.,0.,-1.));
#313=DIRECTION('',(1.,0.,0.));
#314=DIRECTION('',(3.06119746595674E-16,0.,-1.));
#315=DIRECTION('',(-1.,0.,-3.05311331771918E-16));
#316=DIRECTION('',(0.,0.,-1.));
#317=DIRECTION('',(1.,0.,0.));
#318=DIRECTION('',(0.,0.,-1.));
#319=DIRECTION('',(-1.,0.,0.));
#320=DIRECTION('',(0.,0.,-1.));
#321=DIRECTION('',(-1.,0.,0.));
#322=DIRECTION('',(0.,0.,1.));
#323=DIRECTION('',(1.,0.,0.));
#324=DIRECTION('',(0.,0.,-1.));
#325=DIRECTION('',(-1.,0.,0.));
#326=DIRECTION('',(0.,0.,1.));
#327=DIRECTION('',(1.,0.,0.));
#328=DIRECTION('',(0.,0.,-1.));
#329=DIRECTION('',(-1.,0.,-2.97262330782648E-17));
#330=DIRECTION('',(0.,0.,1.));
#331=DIRECTION('',(1.,0.,0.));
#332=DIRECTION('',(0.,0.,-1.));
#333=DIRECTION('',(-1.,0.,0.));
#334=DIRECTION('',(0.,0.,1.));
#335=DIRECTION('',(1.,0.,0.));
#336=DIRECTION('',(0.,0.,1.));
#337=DIRECTION('',(1.,0.,7.54791887014482E-17));
#338=DIRECTION('',(0.,0.,1.));
#339=DIRECTION('',(1.,0.,0.));
#340=DIRECTION('',(0.,0.,-1.));
#341=DIRECTION('',(-1.,0.,-7.66730479550893E-16));
#342=DIRECTION('',(0.,0.,1.));
#343=DIRECTION('',(1.,0.,0.));
#344=DIRECTION('',(0.,0.,-1.));
#345=DIRECTION('',(-1.,0.,-1.00875171351144E-17));
#346=DIRECTION('',(0.,0.,1.));
#347=DIRECTION('',(1.,0.,0.));
#348=DIRECTION('',(0.,0.,-1.));
#349=DIRECTION('',(-1.,0.,0.));
#350=DIRECTION('',(0.,0.,1.));
#351=DIRECTION('',(1.,0.,0.));
#352=DIRECTION('',(0.,0.,-1.));
#353=DIRECTION('',(-1.,0.,0.));
#354=DIRECTION('',(0.,0.,1.));
#355=DIRECTION('',(1.,0.,0.));
#356=DIRECTION('',(0.,0.,-1.));
#357=DIRECTION('',(-1.,0.,0.));
#358=DIRECTION('',(0.,0.,1.));
#359=DIRECTION('',(1.,0.,0.));
#360=DIRECTION('',(0.,0.,-1.));
#361=DIRECTION('',(-1.,0.,-7.03546837956793E-16));
#362=DIRECTION('',(0.,0.,-1.));
#363=DIRECTION('',(-1.,0.,-7.73170808564694E-17));
#364=CARTESIAN_POINT('',(0.,0.,0.));
#365=CARTESIAN_POINT('',(0.,0.,0.));
#366=CARTESIAN_POINT('',(0.,0.,-50.));
#367=CARTESIAN_POINT('',(1.99840144432528E-14,0.,-155.));
#368=CARTESIAN_POINT('',(0.,0.,0.));
#369=CARTESIAN_POINT('',(0.,0.,-50.));
#370=CARTESIAN_POINT('',(1.99840144432528E-14,0.,-155.));
#371=CARTESIAN_POINT('',(0.,0.,-140.5));
#372=CARTESIAN_POINT('',(2.775,0.,-140.5));
#373=CARTESIAN_POINT('',(0.,0.,-138.832611782199));
#374=CARTESIAN_POINT('',(0.,0.,-138.832611782199));
#375=CARTESIAN_POINT('',(5.29973427768917E-15,0.,-107.030927998386));
#376=CARTESIAN_POINT('',(-9.99674999999999,0.,-107.030927998386));
#377=CARTESIAN_POINT('',(0.,0.,-1.));
#378=CARTESIAN_POINT('',(9.99675000000001,0.,-1.));
#379=CARTESIAN_POINT('',(-1.15463194561016E-14,0.,-52.));
#380=CARTESIAN_POINT('',(1.99840144432528E-14,0.,-155.));
#381=CARTESIAN_POINT('',(-5.79999999999996,0.,-155.));
#382=CARTESIAN_POINT('',(5.29973427768917E-15,0.,-107.030927998386));
#383=CARTESIAN_POINT('',(0.,0.,-155.));
#384=CARTESIAN_POINT('',(5.11872397026647,0.,-155.));
#385=CARTESIAN_POINT('',(5.8,0.,-155.));
#386=CARTESIAN_POINT('',(0.,0.,0.));
#387=CARTESIAN_POINT('',(8.99675000000001,0.,0.));
#388=CARTESIAN_POINT('',(0.,0.,0.));
#389=CARTESIAN_POINT('',(0.,0.,0.));
#390=CARTESIAN_POINT('',(0.,0.,-144.2));
#391=CARTESIAN_POINT('',(2.775,0.,-144.2));
#392=CARTESIAN_POINT('',(0.,0.,-155.));
#393=CARTESIAN_POINT('',(0.,0.,-144.280055786502));
#394=CARTESIAN_POINT('',(3.07377226266474,0.,-144.280055786502));
#395=CARTESIAN_POINT('',(0.,0.,-144.2));
#396=CARTESIAN_POINT('',(0.,0.,-145.588001756117));
#397=CARTESIAN_POINT('',(3.75464583834813,0.,-145.588001756117));
#398=CARTESIAN_POINT('',(0.,0.,-145.245981612791));
#399=CARTESIAN_POINT('',(0.,0.,-146.3));
#400=CARTESIAN_POINT('',(3.49549967072475,0.,-146.3));
#401=CARTESIAN_POINT('',(0.,0.,-145.588001756117));
#402=CARTESIAN_POINT('',(0.,0.,-151.1));
#403=CARTESIAN_POINT('',(4.,0.,-151.1));
#404=CARTESIAN_POINT('',(0.,0.,-146.3));
#405=CARTESIAN_POINT('',(0.,0.,-151.209616381393));
#406=CARTESIAN_POINT('',(4.30116853267934,0.,-151.209616381393));
#407=CARTESIAN_POINT('',(0.,0.,-151.1));
#408=CARTESIAN_POINT('',(0.,0.,-151.679462691786));
#409=CARTESIAN_POINT('',(4.6301584610165,0.,-151.679462691786));
#410=CARTESIAN_POINT('',(0.,0.,-151.679462691786));
#411=CARTESIAN_POINT('',(0.,0.,-152.7));
#412=CARTESIAN_POINT('',(4.63015846101651,0.,-152.7));
#413=CARTESIAN_POINT('',(0.,0.,-155.));
#414=CARTESIAN_POINT('',(0.,0.,-153.));
#415=CARTESIAN_POINT('',(4.5301584610165,0.,-153.));
#416=CARTESIAN_POINT('',(0.,0.,-152.7));
#417=CARTESIAN_POINT('',(0.,0.,-154.5));
#418=CARTESIAN_POINT('',(4.58253961525413,0.,-154.5));
#419=CARTESIAN_POINT('',(0.,0.,-153.));
#420=CARTESIAN_POINT('',(0.,0.,-154.5));
#421=MECHANICAL_DESIGN_GEOMETRIC_PRESENTATION_REPRESENTATION('',(#231,#232,
#233,#234,#235,#236,#237),#422);
#422=(
GEOMETRIC_REPRESENTATION_CONTEXT(3)
GLOBAL_UNCERTAINTY_ASSIGNED_CONTEXT((#423))
GLOBAL_UNIT_ASSIGNED_CONTEXT((#429,#425,#424))
REPRESENTATION_CONTEXT('XE12200J4-155-05','TOP_LEVEL_ASSEMBLY_PART')
);
#423=UNCERTAINTY_MEASURE_WITH_UNIT(LENGTH_MEASURE(2.E-5),#429,
'DISTANCE_ACCURACY_VALUE','Maximum Tolerance applied to model');
#424=(
NAMED_UNIT(*)
SI_UNIT($,.STERADIAN.)
SOLID_ANGLE_UNIT()
);
#425=(
CONVERSION_BASED_UNIT('DEGREE',#427)
NAMED_UNIT(#426)
PLANE_ANGLE_UNIT()
);
#426=DIMENSIONAL_EXPONENTS(0.,0.,0.,0.,0.,0.,0.);
#427=PLANE_ANGLE_MEASURE_WITH_UNIT(PLANE_ANGLE_MEASURE(0.0174532925),#428);
#428=(
NAMED_UNIT(*)
PLANE_ANGLE_UNIT()
SI_UNIT($,.RADIAN.)
);
#429=(
LENGTH_UNIT()
NAMED_UNIT(*)
SI_UNIT(.MILLI.,.METRE.)
);
ENDSEC;
END-ISO-10303-21;
