ISO-10303-21;
HEADER;
/* Generated by software containing ST-Developer
 * from STEP Tools, Inc. (www.steptools.com) 
 */
/* OPTION: using custom schema-name function */

FILE_DESCRIPTION(
/* description */ (''),
/* implementation_level */ '2;1');

FILE_NAME(
/* name */ 'XE10200J5-140-05.0S.stp',
/* time_stamp */ '2022-07-28T08:43:44+05:00',
/* author */ (''),
/* organization */ (''),
/* preprocessor_version */ 'ST-DEVELOPER v16.7',
/* originating_system */ 'SIEMENS PLM Software NX 12.0',
/* authorisation */ '');

FILE_SCHEMA (('AUTOMOTIVE_DESIGN { 1 0 10303 214 3 1 1 1 }'));
ENDSEC;

DATA;
#10=CONSTRUCTIVE_GEOMETRY_REPRESENTATION_RELATIONSHIP(
'supplemental geometry','',#34,#11);
#11=CONSTRUCTIVE_GEOMETRY_REPRESENTATION('supplemental geometry',(#265,
#266,#267),#442);
#12=GEOMETRICALLY_BOUNDED_WIREFRAME_SHAPE_REPRESENTATION(
'inpu2A3062D0pm8c-None',(#35),#442);
#13=PROPERTY_DEFINITION_REPRESENTATION(#17,#15);
#14=PROPERTY_DEFINITION_REPRESENTATION(#18,#16);
#15=REPRESENTATION('',(#19),#442);
#16=REPRESENTATION('',(#20),#442);
#17=PROPERTY_DEFINITION('pmi validation property','',#25);
#18=PROPERTY_DEFINITION('pmi validation property','',#25);
#19=VALUE_REPRESENTATION_ITEM('number of annotations',COUNT_MEASURE(0.));
#20=VALUE_REPRESENTATION_ITEM('number of views',COUNT_MEASURE(0.));
#21=SHAPE_REPRESENTATION_RELATIONSHIP('None',
'relationship between inpu2A3062D0pm8c-None and inpu2A3062D0pm8c-None',
#34,#23);
#22=SHAPE_REPRESENTATION_RELATIONSHIP('None',
'relationship between inpu2A3062D0pm8c-None and inpu2A3062D0pm8c-None',
#34,#12);
#23=ADVANCED_BREP_SHAPE_REPRESENTATION('inpu2A3062D0pm8c-None',(#41),#442);
#24=SHAPE_DEFINITION_REPRESENTATION(#25,#34);
#25=PRODUCT_DEFINITION_SHAPE('','',#26);
#26=PRODUCT_DEFINITION(' ','',#28,#27);
#27=PRODUCT_DEFINITION_CONTEXT('part definition',#33,'design');
#28=PRODUCT_DEFINITION_FORMATION_WITH_SPECIFIED_SOURCE(' ',' ',#30,
 .NOT_KNOWN.);
#29=PRODUCT_RELATED_PRODUCT_CATEGORY('part','',(#30));
#30=PRODUCT('inpu2A3062D0pm8c','inpu2A3062D0pm8c',' ',(#31));
#31=PRODUCT_CONTEXT(' ',#33,'mechanical');
#32=APPLICATION_PROTOCOL_DEFINITION('international standard',
'automotive_design',2010,#33);
#33=APPLICATION_CONTEXT(
'core data for automotive mechanical design processes');
#34=SHAPE_REPRESENTATION('inpu2A3062D0pm8c-None',(#264),#442);
#35=GEOMETRIC_CURVE_SET('None',(#382,#383,#384));
#36=SURFACE_STYLE_USAGE(.BOTH.,#37);
#37=SURFACE_SIDE_STYLE('',(#38));
#38=SURFACE_STYLE_FILL_AREA(#39);
#39=FILL_AREA_STYLE('',(#40));
#40=FILL_AREA_STYLE_COLOUR('',#263);
#41=MANIFOLD_SOLID_BREP('NOCUT',#42);
#42=CLOSED_SHELL('',(#53,#54,#55,#56,#57,#58,#59,#60,#61,#62,#63,#64,#65,
#66,#67,#68,#69,#70));
#43=TOROIDAL_SURFACE('',#283,2.425,0.2);
#44=TOROIDAL_SURFACE('',#287,2.20737450454426,0.799999999999997);
#45=TOROIDAL_SURFACE('',#295,3.44813469186403,0.2);
#46=TOROIDAL_SURFACE('',#299,3.44813469186403,0.2);
#47=FACE_OUTER_BOUND('',#122,.T.);
#48=PLANE('',#276);
#49=PLANE('',#278);
#50=CYLINDRICAL_SURFACE('',#272,9.99675);
#51=CYLINDRICAL_SURFACE('',#281,2.225);
#52=CYLINDRICAL_SURFACE('',#297,3.64813469186403);
#53=ADVANCED_FACE('CLONE_TP_FACE',(#81,#82),#71,.F.);
#54=ADVANCED_FACE('CLONE_TP_FACE',(#83,#84),#50,.T.);
#55=ADVANCED_FACE('CLONE_TP_FACE',(#85,#86),#72,.T.);
#56=ADVANCED_FACE('CLONE_TP_FACE',(#87,#88),#48,.T.);
#57=ADVANCED_FACE('CLONE_TP_FACE',(#47),#49,.F.);
#58=ADVANCED_FACE('CLONE_TP_FACE',(#89,#90),#73,.T.);
#59=ADVANCED_FACE('CLONE_TP_FACE',(#91,#92),#51,.F.);
#60=ADVANCED_FACE('CLONE_TP_FACE',(#93,#94),#43,.T.);
#61=ADVANCED_FACE('CLONE_TP_FACE',(#95,#96),#74,.F.);
#62=ADVANCED_FACE('CLONE_TP_FACE',(#97,#98),#44,.F.);
#63=ADVANCED_FACE('CLONE_TP_FACE',(#99,#100),#75,.F.);
#64=ADVANCED_FACE('CLONE_TP_FACE',(#101,#102),#76,.F.);
#65=ADVANCED_FACE('CLONE_TP_FACE',(#103,#104),#77,.F.);
#66=ADVANCED_FACE('CLONE_TP_FACE',(#105,#106),#45,.F.);
#67=ADVANCED_FACE('CLONE_TP_FACE',(#107,#108),#52,.F.);
#68=ADVANCED_FACE('CLONE_TP_FACE',(#109,#110),#46,.F.);
#69=ADVANCED_FACE('CLONE_TP_FACE',(#111,#112),#78,.F.);
#70=ADVANCED_FACE('CLONE_TP_FACE',(#113,#114),#79,.F.);
#71=CONICAL_SURFACE('',#269,4.44089209850063E-16,59.0000000000001);
#72=CONICAL_SURFACE('',#274,9.99675,5.00000000000001);
#73=CONICAL_SURFACE('',#279,8.99675000000001,45.);
#74=CONICAL_SURFACE('',#285,2.3732361909795,74.9999999999912);
#75=CONICAL_SURFACE('',#289,2.72160459229349,49.9999999999992);
#76=CONICAL_SURFACE('',#291,2.59027234429821,5.99999999999999);
#77=CONICAL_SURFACE('',#293,3.13,74.9999999999999);
#78=CONICAL_SURFACE('',#301,3.54813469186403,2.00000000000002);
#79=CONICAL_SURFACE('',#302,3.59003961525413,45.);
#80=VERTEX_LOOP('',#184);
#81=FACE_BOUND('',#115,.T.);
#82=FACE_BOUND('',#80,.T.);
#83=FACE_BOUND('',#116,.T.);
#84=FACE_BOUND('',#117,.T.);
#85=FACE_BOUND('',#118,.T.);
#86=FACE_BOUND('',#119,.T.);
#87=FACE_BOUND('',#120,.T.);
#88=FACE_BOUND('',#121,.T.);
#89=FACE_BOUND('',#123,.T.);
#90=FACE_BOUND('',#124,.T.);
#91=FACE_BOUND('',#125,.T.);
#92=FACE_BOUND('',#126,.T.);
#93=FACE_BOUND('',#127,.T.);
#94=FACE_BOUND('',#128,.T.);
#95=FACE_BOUND('',#129,.T.);
#96=FACE_BOUND('',#130,.T.);
#97=FACE_BOUND('',#131,.T.);
#98=FACE_BOUND('',#132,.T.);
#99=FACE_BOUND('',#133,.T.);
#100=FACE_BOUND('',#134,.T.);
#101=FACE_BOUND('',#135,.T.);
#102=FACE_BOUND('',#136,.T.);
#103=FACE_BOUND('',#137,.T.);
#104=FACE_BOUND('',#138,.T.);
#105=FACE_BOUND('',#139,.T.);
#106=FACE_BOUND('',#140,.T.);
#107=FACE_BOUND('',#141,.T.);
#108=FACE_BOUND('',#142,.T.);
#109=FACE_BOUND('',#143,.T.);
#110=FACE_BOUND('',#144,.T.);
#111=FACE_BOUND('',#145,.T.);
#112=FACE_BOUND('',#146,.T.);
#113=FACE_BOUND('',#147,.T.);
#114=FACE_BOUND('',#148,.T.);
#115=EDGE_LOOP('',(#149));
#116=EDGE_LOOP('',(#150));
#117=EDGE_LOOP('',(#151));
#118=EDGE_LOOP('',(#152));
#119=EDGE_LOOP('',(#153));
#120=EDGE_LOOP('',(#154));
#121=EDGE_LOOP('',(#155));
#122=EDGE_LOOP('',(#156));
#123=EDGE_LOOP('',(#157));
#124=EDGE_LOOP('',(#158));
#125=EDGE_LOOP('',(#159));
#126=EDGE_LOOP('',(#160));
#127=EDGE_LOOP('',(#161));
#128=EDGE_LOOP('',(#162));
#129=EDGE_LOOP('',(#163));
#130=EDGE_LOOP('',(#164));
#131=EDGE_LOOP('',(#165));
#132=EDGE_LOOP('',(#166));
#133=EDGE_LOOP('',(#167));
#134=EDGE_LOOP('',(#168));
#135=EDGE_LOOP('',(#169));
#136=EDGE_LOOP('',(#170));
#137=EDGE_LOOP('',(#171));
#138=EDGE_LOOP('',(#172));
#139=EDGE_LOOP('',(#173));
#140=EDGE_LOOP('',(#174));
#141=EDGE_LOOP('',(#175));
#142=EDGE_LOOP('',(#176));
#143=EDGE_LOOP('',(#177));
#144=EDGE_LOOP('',(#178));
#145=EDGE_LOOP('',(#179));
#146=EDGE_LOOP('',(#180));
#147=EDGE_LOOP('',(#181));
#148=EDGE_LOOP('',(#182));
#149=ORIENTED_EDGE('',*,*,#201,.F.);
#150=ORIENTED_EDGE('',*,*,#202,.T.);
#151=ORIENTED_EDGE('',*,*,#203,.T.);
#152=ORIENTED_EDGE('',*,*,#204,.T.);
#153=ORIENTED_EDGE('',*,*,#202,.F.);
#154=ORIENTED_EDGE('',*,*,#205,.F.);
#155=ORIENTED_EDGE('',*,*,#204,.F.);
#156=ORIENTED_EDGE('',*,*,#206,.F.);
#157=ORIENTED_EDGE('',*,*,#203,.F.);
#158=ORIENTED_EDGE('',*,*,#206,.T.);
#159=ORIENTED_EDGE('',*,*,#207,.F.);
#160=ORIENTED_EDGE('',*,*,#201,.T.);
#161=ORIENTED_EDGE('',*,*,#208,.F.);
#162=ORIENTED_EDGE('',*,*,#207,.T.);
#163=ORIENTED_EDGE('',*,*,#209,.F.);
#164=ORIENTED_EDGE('',*,*,#208,.T.);
#165=ORIENTED_EDGE('',*,*,#210,.F.);
#166=ORIENTED_EDGE('',*,*,#209,.T.);
#167=ORIENTED_EDGE('',*,*,#211,.F.);
#168=ORIENTED_EDGE('',*,*,#210,.T.);
#169=ORIENTED_EDGE('',*,*,#212,.F.);
#170=ORIENTED_EDGE('',*,*,#211,.T.);
#171=ORIENTED_EDGE('',*,*,#213,.F.);
#172=ORIENTED_EDGE('',*,*,#212,.T.);
#173=ORIENTED_EDGE('',*,*,#214,.F.);
#174=ORIENTED_EDGE('',*,*,#213,.T.);
#175=ORIENTED_EDGE('',*,*,#215,.F.);
#176=ORIENTED_EDGE('',*,*,#214,.T.);
#177=ORIENTED_EDGE('',*,*,#216,.F.);
#178=ORIENTED_EDGE('',*,*,#215,.T.);
#179=ORIENTED_EDGE('',*,*,#217,.F.);
#180=ORIENTED_EDGE('',*,*,#216,.T.);
#181=ORIENTED_EDGE('',*,*,#205,.T.);
#182=ORIENTED_EDGE('',*,*,#217,.T.);
#183=VERTEX_POINT('',#389);
#184=VERTEX_POINT('',#390);
#185=VERTEX_POINT('',#393);
#186=VERTEX_POINT('',#395);
#187=VERTEX_POINT('',#398);
#188=VERTEX_POINT('',#401);
#189=VERTEX_POINT('',#404);
#190=VERTEX_POINT('',#408);
#191=VERTEX_POINT('',#411);
#192=VERTEX_POINT('',#414);
#193=VERTEX_POINT('',#417);
#194=VERTEX_POINT('',#420);
#195=VERTEX_POINT('',#423);
#196=VERTEX_POINT('',#426);
#197=VERTEX_POINT('',#429);
#198=VERTEX_POINT('',#432);
#199=VERTEX_POINT('',#435);
#200=VERTEX_POINT('',#438);
#201=EDGE_CURVE('',#183,#183,#218,.T.);
#202=EDGE_CURVE('',#185,#185,#219,.T.);
#203=EDGE_CURVE('',#186,#186,#220,.T.);
#204=EDGE_CURVE('',#187,#187,#221,.T.);
#205=EDGE_CURVE('',#188,#188,#222,.T.);
#206=EDGE_CURVE('',#189,#189,#223,.T.);
#207=EDGE_CURVE('',#190,#190,#224,.T.);
#208=EDGE_CURVE('',#191,#191,#225,.T.);
#209=EDGE_CURVE('',#192,#192,#226,.T.);
#210=EDGE_CURVE('',#193,#193,#227,.T.);
#211=EDGE_CURVE('',#194,#194,#228,.T.);
#212=EDGE_CURVE('',#195,#195,#229,.T.);
#213=EDGE_CURVE('',#196,#196,#230,.T.);
#214=EDGE_CURVE('',#197,#197,#231,.T.);
#215=EDGE_CURVE('',#198,#198,#232,.T.);
#216=EDGE_CURVE('',#199,#199,#233,.T.);
#217=EDGE_CURVE('',#200,#200,#234,.T.);
#218=CIRCLE('',#268,2.225);
#219=CIRCLE('',#270,9.99675);
#220=CIRCLE('',#271,9.99675000000001);
#221=CIRCLE('',#273,4.79999999999998);
#222=CIRCLE('',#275,4.09003961525413);
#223=CIRCLE('',#277,8.99675000000001);
#224=CIRCLE('',#280,2.225);
#225=CIRCLE('',#282,2.3732361909795);
#226=CIRCLE('',#284,2.41442974062627);
#227=CIRCLE('',#286,2.72160459229349);
#228=CIRCLE('',#288,2.59027234429821);
#229=CIRCLE('',#290,3.13);
#230=CIRCLE('',#292,3.49989850088453);
#231=CIRCLE('',#294,3.64813469186403);
#232=CIRCLE('',#296,3.64813469186403);
#233=CIRCLE('',#298,3.54813469186403);
#234=CIRCLE('',#300,3.59003961525413);
#235=CURVE_STYLE('',#238,POSITIVE_LENGTH_MEASURE(0.18),#262);
#236=CURVE_STYLE('',#239,POSITIVE_LENGTH_MEASURE(0.18),#262);
#237=CURVE_STYLE('',#240,POSITIVE_LENGTH_MEASURE(0.18),#262);
#238=DRAUGHTING_PRE_DEFINED_CURVE_FONT('continuous');
#239=DRAUGHTING_PRE_DEFINED_CURVE_FONT('continuous');
#240=DRAUGHTING_PRE_DEFINED_CURVE_FONT('continuous');
#241=PRESENTATION_LAYER_ASSIGNMENT('1','Layer 1',(#382,#383,#384,#265,#266,
#267,#41));
#242=STYLED_ITEM('',(#249),#382);
#243=STYLED_ITEM('',(#250),#383);
#244=STYLED_ITEM('',(#251),#384);
#245=STYLED_ITEM('',(#252),#265);
#246=STYLED_ITEM('',(#253),#266);
#247=STYLED_ITEM('',(#254),#267);
#248=STYLED_ITEM('',(#255),#41);
#249=PRESENTATION_STYLE_ASSIGNMENT((#256));
#250=PRESENTATION_STYLE_ASSIGNMENT((#257));
#251=PRESENTATION_STYLE_ASSIGNMENT((#258));
#252=PRESENTATION_STYLE_ASSIGNMENT((#235));
#253=PRESENTATION_STYLE_ASSIGNMENT((#236));
#254=PRESENTATION_STYLE_ASSIGNMENT((#237));
#255=PRESENTATION_STYLE_ASSIGNMENT((#36));
#256=POINT_STYLE('',#259,POSITIVE_LENGTH_MEASURE(3.),#262);
#257=POINT_STYLE('',#260,POSITIVE_LENGTH_MEASURE(3.),#262);
#258=POINT_STYLE('',#261,POSITIVE_LENGTH_MEASURE(3.),#262);
#259=PRE_DEFINED_POINT_MARKER_SYMBOL('plus');
#260=PRE_DEFINED_POINT_MARKER_SYMBOL('plus');
#261=PRE_DEFINED_POINT_MARKER_SYMBOL('plus');
#262=COLOUR_RGB('Strong Stone',0.576470588235294,0.54508278019379,0.392156862745098);
#263=COLOUR_RGB('Medium Gray',0.490196078431373,0.490196078431373,0.490196078431373);
#264=AXIS2_PLACEMENT_3D('',#381,#303,#304);
#265=AXIS2_PLACEMENT_3D('PCS',#385,#305,#306);
#266=AXIS2_PLACEMENT_3D('MCS',#386,#307,#308);
#267=AXIS2_PLACEMENT_3D('CSW',#387,#309,#310);
#268=AXIS2_PLACEMENT_3D('',#388,#311,#312);
#269=AXIS2_PLACEMENT_3D('',#391,#313,#314);
#270=AXIS2_PLACEMENT_3D('',#392,#315,#316);
#271=AXIS2_PLACEMENT_3D('',#394,#317,#318);
#272=AXIS2_PLACEMENT_3D('',#396,#319,#320);
#273=AXIS2_PLACEMENT_3D('',#397,#321,#322);
#274=AXIS2_PLACEMENT_3D('',#399,#323,#324);
#275=AXIS2_PLACEMENT_3D('',#400,#325,#326);
#276=AXIS2_PLACEMENT_3D('',#402,#327,#328);
#277=AXIS2_PLACEMENT_3D('',#403,#329,#330);
#278=AXIS2_PLACEMENT_3D('',#405,#331,#332);
#279=AXIS2_PLACEMENT_3D('',#406,#333,#334);
#280=AXIS2_PLACEMENT_3D('',#407,#335,#336);
#281=AXIS2_PLACEMENT_3D('',#409,#337,#338);
#282=AXIS2_PLACEMENT_3D('',#410,#339,#340);
#283=AXIS2_PLACEMENT_3D('',#412,#341,#342);
#284=AXIS2_PLACEMENT_3D('',#413,#343,#344);
#285=AXIS2_PLACEMENT_3D('',#415,#345,#346);
#286=AXIS2_PLACEMENT_3D('',#416,#347,#348);
#287=AXIS2_PLACEMENT_3D('',#418,#349,#350);
#288=AXIS2_PLACEMENT_3D('',#419,#351,#352);
#289=AXIS2_PLACEMENT_3D('',#421,#353,#354);
#290=AXIS2_PLACEMENT_3D('',#422,#355,#356);
#291=AXIS2_PLACEMENT_3D('',#424,#357,#358);
#292=AXIS2_PLACEMENT_3D('',#425,#359,#360);
#293=AXIS2_PLACEMENT_3D('',#427,#361,#362);
#294=AXIS2_PLACEMENT_3D('',#428,#363,#364);
#295=AXIS2_PLACEMENT_3D('',#430,#365,#366);
#296=AXIS2_PLACEMENT_3D('',#431,#367,#368);
#297=AXIS2_PLACEMENT_3D('',#433,#369,#370);
#298=AXIS2_PLACEMENT_3D('',#434,#371,#372);
#299=AXIS2_PLACEMENT_3D('',#436,#373,#374);
#300=AXIS2_PLACEMENT_3D('',#437,#375,#376);
#301=AXIS2_PLACEMENT_3D('',#439,#377,#378);
#302=AXIS2_PLACEMENT_3D('',#440,#379,#380);
#303=DIRECTION('',(0.,0.,1.));
#304=DIRECTION('',(1.,0.,0.));
#305=DIRECTION('',(0.,0.,1.));
#306=DIRECTION('',(1.,0.,0.));
#307=DIRECTION('',(0.,0.,1.));
#308=DIRECTION('',(1.,0.,0.));
#309=DIRECTION('',(0.,0.,1.));
#310=DIRECTION('',(1.,0.,0.));
#311=DIRECTION('',(0.,0.,1.));
#312=DIRECTION('',(1.,0.,0.));
#313=DIRECTION('',(0.,0.,-1.));
#314=DIRECTION('',(-1.,0.,6.6708929383492E-17));
#315=DIRECTION('',(-3.17927502506295E-16,0.,1.));
#316=DIRECTION('',(-1.,0.,0.));
#317=DIRECTION('',(0.,0.,-1.));
#318=DIRECTION('',(1.,0.,0.));
#319=DIRECTION('',(-3.17927502506295E-16,0.,1.));
#320=DIRECTION('',(1.,0.,0.));
#321=DIRECTION('',(-3.17927502506295E-16,0.,1.));
#322=DIRECTION('',(-1.,0.,0.));
#323=DIRECTION('',(-3.17927502506295E-16,0.,1.));
#324=DIRECTION('',(1.,0.,-1.42357582594897E-16));
#325=DIRECTION('',(0.,0.,-1.));
#326=DIRECTION('',(1.,0.,0.));
#327=DIRECTION('',(3.17927502506295E-16,0.,-1.));
#328=DIRECTION('',(-1.,0.,-3.05311331771918E-16));
#329=DIRECTION('',(0.,0.,-1.));
#330=DIRECTION('',(1.,0.,0.));
#331=DIRECTION('',(0.,0.,-1.));
#332=DIRECTION('',(-1.,0.,0.));
#333=DIRECTION('',(0.,0.,-1.));
#334=DIRECTION('',(-1.,0.,0.));
#335=DIRECTION('',(0.,0.,1.));
#336=DIRECTION('',(1.,0.,0.));
#337=DIRECTION('',(0.,0.,-1.));
#338=DIRECTION('',(-1.,0.,0.));
#339=DIRECTION('',(0.,0.,1.));
#340=DIRECTION('',(1.,0.,0.));
#341=DIRECTION('',(0.,0.,-1.));
#342=DIRECTION('',(-1.,0.,0.));
#343=DIRECTION('',(0.,0.,1.));
#344=DIRECTION('',(1.,0.,0.));
#345=DIRECTION('',(0.,0.,-1.));
#346=DIRECTION('',(-1.,0.,7.43235778540601E-18));
#347=DIRECTION('',(0.,0.,1.));
#348=DIRECTION('',(1.,0.,0.));
#349=DIRECTION('',(0.,0.,-1.));
#350=DIRECTION('',(-1.,0.,0.));
#351=DIRECTION('',(0.,0.,1.));
#352=DIRECTION('',(1.,0.,0.));
#353=DIRECTION('',(0.,0.,1.));
#354=DIRECTION('',(1.,0.,0.));
#355=DIRECTION('',(0.,0.,1.));
#356=DIRECTION('',(1.,0.,0.));
#357=DIRECTION('',(0.,0.,-1.));
#358=DIRECTION('',(-1.,0.,-1.03090032097638E-15));
#359=DIRECTION('',(0.,0.,1.));
#360=DIRECTION('',(1.,0.,0.));
#361=DIRECTION('',(0.,0.,-1.));
#362=DIRECTION('',(-1.,0.,-7.43085195752396E-18));
#363=DIRECTION('',(0.,0.,1.));
#364=DIRECTION('',(1.,0.,0.));
#365=DIRECTION('',(0.,0.,-1.));
#366=DIRECTION('',(-1.,0.,0.));
#367=DIRECTION('',(0.,0.,1.));
#368=DIRECTION('',(1.,0.,0.));
#369=DIRECTION('',(0.,0.,-1.));
#370=DIRECTION('',(-1.,0.,0.));
#371=DIRECTION('',(0.,0.,1.));
#372=DIRECTION('',(1.,0.,0.));
#373=DIRECTION('',(0.,0.,-1.));
#374=DIRECTION('',(-1.,0.,0.));
#375=DIRECTION('',(0.,0.,1.));
#376=DIRECTION('',(1.,0.,0.));
#377=DIRECTION('',(0.,0.,-1.));
#378=DIRECTION('',(-1.,0.,-2.16452037337624E-15));
#379=DIRECTION('',(0.,0.,-1.));
#380=DIRECTION('',(-1.,0.,5.53125768890045E-17));
#381=CARTESIAN_POINT('',(0.,0.,0.));
#382=CARTESIAN_POINT('',(0.,0.,0.));
#383=CARTESIAN_POINT('',(0.,0.,-50.));
#384=CARTESIAN_POINT('',(1.82076576038526E-14,0.,-140.));
#385=CARTESIAN_POINT('',(0.,0.,0.));
#386=CARTESIAN_POINT('',(0.,0.,-50.));
#387=CARTESIAN_POINT('',(1.82076576038526E-14,0.,-140.));
#388=CARTESIAN_POINT('',(0.,0.,-127.));
#389=CARTESIAN_POINT('',(2.225,0.,-127.));
#390=CARTESIAN_POINT('',(0.,0.,-125.663085122664));
#391=CARTESIAN_POINT('',(0.,0.,-125.663085122664));
#392=CARTESIAN_POINT('',(-6.76957637298349E-16,0.,-80.6008756956249));
#393=CARTESIAN_POINT('',(-9.99675,0.,-80.6008756956249));
#394=CARTESIAN_POINT('',(0.,0.,-1.));
#395=CARTESIAN_POINT('',(9.99675000000001,0.,-1.));
#396=CARTESIAN_POINT('',(-9.76996261670138E-15,0.,-52.));
#397=CARTESIAN_POINT('',(1.82076576038526E-14,0.,-140.));
#398=CARTESIAN_POINT('',(-4.79999999999996,0.,-140.));
#399=CARTESIAN_POINT('',(-6.76957637298349E-16,0.,-80.6008756956249));
#400=CARTESIAN_POINT('',(0.,0.,-140.));
#401=CARTESIAN_POINT('',(4.09003961525413,0.,-140.));
#402=CARTESIAN_POINT('',(4.8,0.,-140.));
#403=CARTESIAN_POINT('',(0.,0.,0.));
#404=CARTESIAN_POINT('',(8.99675000000001,0.,0.));
#405=CARTESIAN_POINT('',(0.,0.,0.));
#406=CARTESIAN_POINT('',(0.,0.,0.));
#407=CARTESIAN_POINT('',(0.,0.,-130.3));
#408=CARTESIAN_POINT('',(2.225,0.,-130.3));
#409=CARTESIAN_POINT('',(0.,0.,-140.));
#410=CARTESIAN_POINT('',(0.,0.,-130.493185165258));
#411=CARTESIAN_POINT('',(2.3732361909795,0.,-130.493185165258));
#412=CARTESIAN_POINT('',(0.,0.,-130.3));
#413=CARTESIAN_POINT('',(0.,0.,-130.504222943619));
#414=CARTESIAN_POINT('',(2.41442974062627,0.,-130.504222943619));
#415=CARTESIAN_POINT('',(0.,0.,-130.493185165258));
#416=CARTESIAN_POINT('',(0.,0.,-131.889799159145));
#417=CARTESIAN_POINT('',(2.72160459229349,0.,-131.889799159145));
#418=CARTESIAN_POINT('',(0.,0.,-131.27696360465));
#419=CARTESIAN_POINT('',(0.,0.,-132.));
#420=CARTESIAN_POINT('',(2.59027234429821,0.,-132.));
#421=CARTESIAN_POINT('',(0.,0.,-131.889799159145));
#422=CARTESIAN_POINT('',(0.,0.,-137.13516562237));
#423=CARTESIAN_POINT('',(3.13,0.,-137.13516562237));
#424=CARTESIAN_POINT('',(0.,0.,-132.));
#425=CARTESIAN_POINT('',(0.,0.,-137.234279626963));
#426=CARTESIAN_POINT('',(3.49989850088453,0.,-137.234279626963));
#427=CARTESIAN_POINT('',(0.,0.,-137.13516562237));
#428=CARTESIAN_POINT('',(0.,0.,-137.427464792221));
#429=CARTESIAN_POINT('',(3.64813469186403,0.,-137.427464792221));
#430=CARTESIAN_POINT('',(0.,0.,-137.427464792221));
#431=CARTESIAN_POINT('',(0.,0.,-138.126794919243));
#432=CARTESIAN_POINT('',(3.64813469186403,0.,-138.126794919243));
#433=CARTESIAN_POINT('',(0.,0.,-140.));
#434=CARTESIAN_POINT('',(0.,0.,-138.3));
#435=CARTESIAN_POINT('',(3.54813469186403,0.,-138.3));
#436=CARTESIAN_POINT('',(0.,0.,-138.126794919243));
#437=CARTESIAN_POINT('',(0.,0.,-139.5));
#438=CARTESIAN_POINT('',(3.59003961525413,0.,-139.5));
#439=CARTESIAN_POINT('',(0.,0.,-138.3));
#440=CARTESIAN_POINT('',(0.,0.,-139.5));
#441=MECHANICAL_DESIGN_GEOMETRIC_PRESENTATION_REPRESENTATION('',(#242,#243,
#244,#245,#246,#247,#248),#442);
#442=(
GEOMETRIC_REPRESENTATION_CONTEXT(3)
GLOBAL_UNCERTAINTY_ASSIGNED_CONTEXT((#443))
GLOBAL_UNIT_ASSIGNED_CONTEXT((#449,#445,#444))
REPRESENTATION_CONTEXT('XE10200J5-140-05','TOP_LEVEL_ASSEMBLY_PART')
);
#443=UNCERTAINTY_MEASURE_WITH_UNIT(LENGTH_MEASURE(2.E-5),#449,
'DISTANCE_ACCURACY_VALUE','Maximum Tolerance applied to model');
#444=(
NAMED_UNIT(*)
SI_UNIT($,.STERADIAN.)
SOLID_ANGLE_UNIT()
);
#445=(
CONVERSION_BASED_UNIT('DEGREE',#447)
NAMED_UNIT(#446)
PLANE_ANGLE_UNIT()
);
#446=DIMENSIONAL_EXPONENTS(0.,0.,0.,0.,0.,0.,0.);
#447=PLANE_ANGLE_MEASURE_WITH_UNIT(PLANE_ANGLE_MEASURE(0.0174532925),#448);
#448=(
NAMED_UNIT(*)
PLANE_ANGLE_UNIT()
SI_UNIT($,.RADIAN.)
);
#449=(
LENGTH_UNIT()
NAMED_UNIT(*)
SI_UNIT(.MILLI.,.METRE.)
);
ENDSEC;
END-ISO-10303-21;
