ISO-10303-21;
HEADER;
/* Generated by software containing ST-Developer
 * from STEP Tools, Inc. (www.steptools.com) 
 */
/* OPTION: using custom schema-name function */

FILE_DESCRIPTION(
/* description */ (''),
/* implementation_level */ '2;1');

FILE_NAME(
/* name */ 'XE10160J3-120-01.0S.stp',
/* time_stamp */ '2022-07-26T08:38:30+05:00',
/* author */ (''),
/* organization */ (''),
/* preprocessor_version */ 'ST-DEVELOPER v16.7',
/* originating_system */ 'SIEMENS PLM Software NX 12.0',
/* authorisation */ '');

FILE_SCHEMA (('AUTOMOTIVE_DESIGN { 1 0 10303 214 3 1 1 1 }'));
ENDSEC;

DATA;
#10=CONSTRUCTIVE_GEOMETRY_REPRESENTATION_RELATIONSHIP(
'supplemental geometry','',#34,#11);
#11=CONSTRUCTIVE_GEOMETRY_REPRESENTATION('supplemental geometry',(#298,
#299,#300),#502);
#12=GEOMETRICALLY_BOUNDED_WIREFRAME_SHAPE_REPRESENTATION(
'inpu4AD4C5A8lxa7-None',(#35),#502);
#13=PROPERTY_DEFINITION_REPRESENTATION(#17,#15);
#14=PROPERTY_DEFINITION_REPRESENTATION(#18,#16);
#15=REPRESENTATION('',(#19),#502);
#16=REPRESENTATION('',(#20),#502);
#17=PROPERTY_DEFINITION('pmi validation property','',#25);
#18=PROPERTY_DEFINITION('pmi validation property','',#25);
#19=VALUE_REPRESENTATION_ITEM('number of annotations',COUNT_MEASURE(0.));
#20=VALUE_REPRESENTATION_ITEM('number of views',COUNT_MEASURE(0.));
#21=SHAPE_REPRESENTATION_RELATIONSHIP('None',
'relationship between inpu4AD4C5A8lxa7-None and inpu4AD4C5A8lxa7-None',
#34,#23);
#22=SHAPE_REPRESENTATION_RELATIONSHIP('None',
'relationship between inpu4AD4C5A8lxa7-None and inpu4AD4C5A8lxa7-None',
#34,#12);
#23=ADVANCED_BREP_SHAPE_REPRESENTATION('inpu4AD4C5A8lxa7-None',(#41),#502);
#24=SHAPE_DEFINITION_REPRESENTATION(#25,#34);
#25=PRODUCT_DEFINITION_SHAPE('','',#26);
#26=PRODUCT_DEFINITION(' ','',#28,#27);
#27=PRODUCT_DEFINITION_CONTEXT('part definition',#33,'design');
#28=PRODUCT_DEFINITION_FORMATION_WITH_SPECIFIED_SOURCE(' ',' ',#30,
 .NOT_KNOWN.);
#29=PRODUCT_RELATED_PRODUCT_CATEGORY('part','',(#30));
#30=PRODUCT('inpu4AD4C5A8lxa7','inpu4AD4C5A8lxa7',' ',(#31));
#31=PRODUCT_CONTEXT(' ',#33,'mechanical');
#32=APPLICATION_PROTOCOL_DEFINITION('international standard',
'automotive_design',2010,#33);
#33=APPLICATION_CONTEXT(
'core data for automotive mechanical design processes');
#34=SHAPE_REPRESENTATION('inpu4AD4C5A8lxa7-None',(#297),#502);
#35=GEOMETRIC_CURVE_SET('None',(#433,#434,#435));
#36=SURFACE_STYLE_USAGE(.BOTH.,#37);
#37=SURFACE_SIDE_STYLE('',(#38));
#38=SURFACE_STYLE_FILL_AREA(#39);
#39=FILL_AREA_STYLE('',(#40));
#40=FILL_AREA_STYLE_COLOUR('',#296);
#41=MANIFOLD_SOLID_BREP('NOCUT',#42);
#42=CLOSED_SHELL('',(#55,#56,#57,#58,#59,#60,#61,#62,#63,#64,#65,#66,#67,
#68,#69,#70,#71,#72,#73,#74,#75));
#43=FACE_OUTER_BOUND('',#140,.T.);
#44=PLANE('',#315);
#45=PLANE('',#317);
#46=TOROIDAL_SURFACE('',#307,7.19725,0.799999999999983);
#47=TOROIDAL_SURFACE('',#311,6.21080542861273,0.800000000000013);
#48=TOROIDAL_SURFACE('',#322,2.425,0.2);
#49=TOROIDAL_SURFACE('',#326,2.20737450454426,0.799999999999997);
#50=TOROIDAL_SURFACE('',#334,3.44813469186403,0.2);
#51=TOROIDAL_SURFACE('',#338,3.44813469186403,0.2);
#52=CYLINDRICAL_SURFACE('',#305,7.99724999999999);
#53=CYLINDRICAL_SURFACE('',#320,2.225);
#54=CYLINDRICAL_SURFACE('',#336,3.64813469186403);
#55=ADVANCED_FACE('CLONE_TP_FACE',(#87,#88),#76,.F.);
#56=ADVANCED_FACE('CLONE_TP_FACE',(#89,#90),#52,.T.);
#57=ADVANCED_FACE('CLONE_TP_FACE',(#91,#92),#46,.T.);
#58=ADVANCED_FACE('CLONE_TP_FACE',(#93,#94),#77,.T.);
#59=ADVANCED_FACE('CLONE_TP_FACE',(#95,#96),#47,.F.);
#60=ADVANCED_FACE('CLONE_TP_FACE',(#97,#98),#78,.T.);
#61=ADVANCED_FACE('CLONE_TP_FACE',(#99,#100),#44,.T.);
#62=ADVANCED_FACE('CLONE_TP_FACE',(#43),#45,.F.);
#63=ADVANCED_FACE('CLONE_TP_FACE',(#101,#102),#79,.T.);
#64=ADVANCED_FACE('CLONE_TP_FACE',(#103,#104),#53,.F.);
#65=ADVANCED_FACE('CLONE_TP_FACE',(#105,#106),#48,.T.);
#66=ADVANCED_FACE('CLONE_TP_FACE',(#107,#108),#80,.F.);
#67=ADVANCED_FACE('CLONE_TP_FACE',(#109,#110),#49,.F.);
#68=ADVANCED_FACE('CLONE_TP_FACE',(#111,#112),#81,.F.);
#69=ADVANCED_FACE('CLONE_TP_FACE',(#113,#114),#82,.F.);
#70=ADVANCED_FACE('CLONE_TP_FACE',(#115,#116),#83,.F.);
#71=ADVANCED_FACE('CLONE_TP_FACE',(#117,#118),#50,.F.);
#72=ADVANCED_FACE('CLONE_TP_FACE',(#119,#120),#54,.F.);
#73=ADVANCED_FACE('CLONE_TP_FACE',(#121,#122),#51,.F.);
#74=ADVANCED_FACE('CLONE_TP_FACE',(#123,#124),#84,.F.);
#75=ADVANCED_FACE('CLONE_TP_FACE',(#125,#126),#85,.F.);
#76=CONICAL_SURFACE('',#302,4.44089209850063E-16,59.0000000000001);
#77=CONICAL_SURFACE('',#309,5.95846498609429,71.6134940464947);
#78=CONICAL_SURFACE('',#313,4.8,0.999999999999986);
#79=CONICAL_SURFACE('',#318,6.99725,45.);
#80=CONICAL_SURFACE('',#324,2.3732361909795,74.9999999999912);
#81=CONICAL_SURFACE('',#328,2.72160459229349,49.9999999999992);
#82=CONICAL_SURFACE('',#330,2.59027234429821,5.99999999999999);
#83=CONICAL_SURFACE('',#332,3.13,74.9999999999999);
#84=CONICAL_SURFACE('',#340,3.54813469186403,2.00000000000002);
#85=CONICAL_SURFACE('',#341,3.59003961525413,45.);
#86=VERTEX_LOOP('',#208);
#87=FACE_BOUND('',#127,.T.);
#88=FACE_BOUND('',#86,.T.);
#89=FACE_BOUND('',#128,.T.);
#90=FACE_BOUND('',#129,.T.);
#91=FACE_BOUND('',#130,.T.);
#92=FACE_BOUND('',#131,.T.);
#93=FACE_BOUND('',#132,.T.);
#94=FACE_BOUND('',#133,.T.);
#95=FACE_BOUND('',#134,.T.);
#96=FACE_BOUND('',#135,.T.);
#97=FACE_BOUND('',#136,.T.);
#98=FACE_BOUND('',#137,.T.);
#99=FACE_BOUND('',#138,.T.);
#100=FACE_BOUND('',#139,.T.);
#101=FACE_BOUND('',#141,.T.);
#102=FACE_BOUND('',#142,.T.);
#103=FACE_BOUND('',#143,.T.);
#104=FACE_BOUND('',#144,.T.);
#105=FACE_BOUND('',#145,.T.);
#106=FACE_BOUND('',#146,.T.);
#107=FACE_BOUND('',#147,.T.);
#108=FACE_BOUND('',#148,.T.);
#109=FACE_BOUND('',#149,.T.);
#110=FACE_BOUND('',#150,.T.);
#111=FACE_BOUND('',#151,.T.);
#112=FACE_BOUND('',#152,.T.);
#113=FACE_BOUND('',#153,.T.);
#114=FACE_BOUND('',#154,.T.);
#115=FACE_BOUND('',#155,.T.);
#116=FACE_BOUND('',#156,.T.);
#117=FACE_BOUND('',#157,.T.);
#118=FACE_BOUND('',#158,.T.);
#119=FACE_BOUND('',#159,.T.);
#120=FACE_BOUND('',#160,.T.);
#121=FACE_BOUND('',#161,.T.);
#122=FACE_BOUND('',#162,.T.);
#123=FACE_BOUND('',#163,.T.);
#124=FACE_BOUND('',#164,.T.);
#125=FACE_BOUND('',#165,.T.);
#126=FACE_BOUND('',#166,.T.);
#127=EDGE_LOOP('',(#167));
#128=EDGE_LOOP('',(#168));
#129=EDGE_LOOP('',(#169));
#130=EDGE_LOOP('',(#170));
#131=EDGE_LOOP('',(#171));
#132=EDGE_LOOP('',(#172));
#133=EDGE_LOOP('',(#173));
#134=EDGE_LOOP('',(#174));
#135=EDGE_LOOP('',(#175));
#136=EDGE_LOOP('',(#176));
#137=EDGE_LOOP('',(#177));
#138=EDGE_LOOP('',(#178));
#139=EDGE_LOOP('',(#179));
#140=EDGE_LOOP('',(#180));
#141=EDGE_LOOP('',(#181));
#142=EDGE_LOOP('',(#182));
#143=EDGE_LOOP('',(#183));
#144=EDGE_LOOP('',(#184));
#145=EDGE_LOOP('',(#185));
#146=EDGE_LOOP('',(#186));
#147=EDGE_LOOP('',(#187));
#148=EDGE_LOOP('',(#188));
#149=EDGE_LOOP('',(#189));
#150=EDGE_LOOP('',(#190));
#151=EDGE_LOOP('',(#191));
#152=EDGE_LOOP('',(#192));
#153=EDGE_LOOP('',(#193));
#154=EDGE_LOOP('',(#194));
#155=EDGE_LOOP('',(#195));
#156=EDGE_LOOP('',(#196));
#157=EDGE_LOOP('',(#197));
#158=EDGE_LOOP('',(#198));
#159=EDGE_LOOP('',(#199));
#160=EDGE_LOOP('',(#200));
#161=EDGE_LOOP('',(#201));
#162=EDGE_LOOP('',(#202));
#163=EDGE_LOOP('',(#203));
#164=EDGE_LOOP('',(#204));
#165=EDGE_LOOP('',(#205));
#166=EDGE_LOOP('',(#206));
#167=ORIENTED_EDGE('',*,*,#228,.F.);
#168=ORIENTED_EDGE('',*,*,#229,.F.);
#169=ORIENTED_EDGE('',*,*,#230,.T.);
#170=ORIENTED_EDGE('',*,*,#229,.T.);
#171=ORIENTED_EDGE('',*,*,#231,.F.);
#172=ORIENTED_EDGE('',*,*,#231,.T.);
#173=ORIENTED_EDGE('',*,*,#232,.F.);
#174=ORIENTED_EDGE('',*,*,#232,.T.);
#175=ORIENTED_EDGE('',*,*,#233,.F.);
#176=ORIENTED_EDGE('',*,*,#233,.T.);
#177=ORIENTED_EDGE('',*,*,#234,.F.);
#178=ORIENTED_EDGE('',*,*,#235,.F.);
#179=ORIENTED_EDGE('',*,*,#234,.T.);
#180=ORIENTED_EDGE('',*,*,#236,.F.);
#181=ORIENTED_EDGE('',*,*,#230,.F.);
#182=ORIENTED_EDGE('',*,*,#236,.T.);
#183=ORIENTED_EDGE('',*,*,#237,.F.);
#184=ORIENTED_EDGE('',*,*,#228,.T.);
#185=ORIENTED_EDGE('',*,*,#238,.F.);
#186=ORIENTED_EDGE('',*,*,#237,.T.);
#187=ORIENTED_EDGE('',*,*,#239,.F.);
#188=ORIENTED_EDGE('',*,*,#238,.T.);
#189=ORIENTED_EDGE('',*,*,#240,.F.);
#190=ORIENTED_EDGE('',*,*,#239,.T.);
#191=ORIENTED_EDGE('',*,*,#241,.F.);
#192=ORIENTED_EDGE('',*,*,#240,.T.);
#193=ORIENTED_EDGE('',*,*,#242,.F.);
#194=ORIENTED_EDGE('',*,*,#241,.T.);
#195=ORIENTED_EDGE('',*,*,#243,.F.);
#196=ORIENTED_EDGE('',*,*,#242,.T.);
#197=ORIENTED_EDGE('',*,*,#244,.F.);
#198=ORIENTED_EDGE('',*,*,#243,.T.);
#199=ORIENTED_EDGE('',*,*,#245,.F.);
#200=ORIENTED_EDGE('',*,*,#244,.T.);
#201=ORIENTED_EDGE('',*,*,#246,.F.);
#202=ORIENTED_EDGE('',*,*,#245,.T.);
#203=ORIENTED_EDGE('',*,*,#247,.F.);
#204=ORIENTED_EDGE('',*,*,#246,.T.);
#205=ORIENTED_EDGE('',*,*,#235,.T.);
#206=ORIENTED_EDGE('',*,*,#247,.T.);
#207=VERTEX_POINT('',#440);
#208=VERTEX_POINT('',#441);
#209=VERTEX_POINT('',#444);
#210=VERTEX_POINT('',#446);
#211=VERTEX_POINT('',#449);
#212=VERTEX_POINT('',#452);
#213=VERTEX_POINT('',#455);
#214=VERTEX_POINT('',#458);
#215=VERTEX_POINT('',#461);
#216=VERTEX_POINT('',#464);
#217=VERTEX_POINT('',#468);
#218=VERTEX_POINT('',#471);
#219=VERTEX_POINT('',#474);
#220=VERTEX_POINT('',#477);
#221=VERTEX_POINT('',#480);
#222=VERTEX_POINT('',#483);
#223=VERTEX_POINT('',#486);
#224=VERTEX_POINT('',#489);
#225=VERTEX_POINT('',#492);
#226=VERTEX_POINT('',#495);
#227=VERTEX_POINT('',#498);
#228=EDGE_CURVE('',#207,#207,#248,.T.);
#229=EDGE_CURVE('',#209,#209,#249,.T.);
#230=EDGE_CURVE('',#210,#210,#250,.T.);
#231=EDGE_CURVE('',#211,#211,#251,.T.);
#232=EDGE_CURVE('',#212,#212,#252,.T.);
#233=EDGE_CURVE('',#213,#213,#253,.T.);
#234=EDGE_CURVE('',#214,#214,#254,.T.);
#235=EDGE_CURVE('',#215,#215,#255,.T.);
#236=EDGE_CURVE('',#216,#216,#256,.T.);
#237=EDGE_CURVE('',#217,#217,#257,.T.);
#238=EDGE_CURVE('',#218,#218,#258,.T.);
#239=EDGE_CURVE('',#219,#219,#259,.T.);
#240=EDGE_CURVE('',#220,#220,#260,.T.);
#241=EDGE_CURVE('',#221,#221,#261,.T.);
#242=EDGE_CURVE('',#222,#222,#262,.T.);
#243=EDGE_CURVE('',#223,#223,#263,.T.);
#244=EDGE_CURVE('',#224,#224,#264,.T.);
#245=EDGE_CURVE('',#225,#225,#265,.T.);
#246=EDGE_CURVE('',#226,#226,#266,.T.);
#247=EDGE_CURVE('',#227,#227,#267,.T.);
#248=CIRCLE('',#301,2.225);
#249=CIRCLE('',#303,7.99724999999998);
#250=CIRCLE('',#304,7.99725);
#251=CIRCLE('',#306,7.44959044251842);
#252=CIRCLE('',#308,5.95846498609429);
#253=CIRCLE('',#310,5.41092727248761);
#254=CIRCLE('',#312,4.8);
#255=CIRCLE('',#314,4.09003961525413);
#256=CIRCLE('',#316,6.99725);
#257=CIRCLE('',#319,2.225);
#258=CIRCLE('',#321,2.3732361909795);
#259=CIRCLE('',#323,2.41442974062627);
#260=CIRCLE('',#325,2.72160459229349);
#261=CIRCLE('',#327,2.59027234429821);
#262=CIRCLE('',#329,3.13);
#263=CIRCLE('',#331,3.49989850088453);
#264=CIRCLE('',#333,3.64813469186403);
#265=CIRCLE('',#335,3.64813469186403);
#266=CIRCLE('',#337,3.54813469186403);
#267=CIRCLE('',#339,3.59003961525413);
#268=CURVE_STYLE('',#271,POSITIVE_LENGTH_MEASURE(0.18),#295);
#269=CURVE_STYLE('',#272,POSITIVE_LENGTH_MEASURE(0.18),#295);
#270=CURVE_STYLE('',#273,POSITIVE_LENGTH_MEASURE(0.18),#295);
#271=DRAUGHTING_PRE_DEFINED_CURVE_FONT('continuous');
#272=DRAUGHTING_PRE_DEFINED_CURVE_FONT('continuous');
#273=DRAUGHTING_PRE_DEFINED_CURVE_FONT('continuous');
#274=PRESENTATION_LAYER_ASSIGNMENT('1','Layer 1',(#433,#434,#435,#298,#299,
#300,#41));
#275=STYLED_ITEM('',(#282),#433);
#276=STYLED_ITEM('',(#283),#434);
#277=STYLED_ITEM('',(#284),#435);
#278=STYLED_ITEM('',(#285),#298);
#279=STYLED_ITEM('',(#286),#299);
#280=STYLED_ITEM('',(#287),#300);
#281=STYLED_ITEM('',(#288),#41);
#282=PRESENTATION_STYLE_ASSIGNMENT((#289));
#283=PRESENTATION_STYLE_ASSIGNMENT((#290));
#284=PRESENTATION_STYLE_ASSIGNMENT((#291));
#285=PRESENTATION_STYLE_ASSIGNMENT((#268));
#286=PRESENTATION_STYLE_ASSIGNMENT((#269));
#287=PRESENTATION_STYLE_ASSIGNMENT((#270));
#288=PRESENTATION_STYLE_ASSIGNMENT((#36));
#289=POINT_STYLE('',#292,POSITIVE_LENGTH_MEASURE(3.),#295);
#290=POINT_STYLE('',#293,POSITIVE_LENGTH_MEASURE(3.),#295);
#291=POINT_STYLE('',#294,POSITIVE_LENGTH_MEASURE(3.),#295);
#292=PRE_DEFINED_POINT_MARKER_SYMBOL('plus');
#293=PRE_DEFINED_POINT_MARKER_SYMBOL('plus');
#294=PRE_DEFINED_POINT_MARKER_SYMBOL('plus');
#295=COLOUR_RGB('Strong Stone',0.576470588235294,0.54508278019379,0.392156862745098);
#296=COLOUR_RGB('Medium Gray',0.490196078431373,0.490196078431373,0.490196078431373);
#297=AXIS2_PLACEMENT_3D('',#432,#342,#343);
#298=AXIS2_PLACEMENT_3D('PCS',#436,#344,#345);
#299=AXIS2_PLACEMENT_3D('MCS',#437,#346,#347);
#300=AXIS2_PLACEMENT_3D('CSW',#438,#348,#349);
#301=AXIS2_PLACEMENT_3D('',#439,#350,#351);
#302=AXIS2_PLACEMENT_3D('',#442,#352,#353);
#303=AXIS2_PLACEMENT_3D('',#443,#354,#355);
#304=AXIS2_PLACEMENT_3D('',#445,#356,#357);
#305=AXIS2_PLACEMENT_3D('',#447,#358,#359);
#306=AXIS2_PLACEMENT_3D('',#448,#360,#361);
#307=AXIS2_PLACEMENT_3D('',#450,#362,#363);
#308=AXIS2_PLACEMENT_3D('',#451,#364,#365);
#309=AXIS2_PLACEMENT_3D('',#453,#366,#367);
#310=AXIS2_PLACEMENT_3D('',#454,#368,#369);
#311=AXIS2_PLACEMENT_3D('',#456,#370,#371);
#312=AXIS2_PLACEMENT_3D('',#457,#372,#373);
#313=AXIS2_PLACEMENT_3D('',#459,#374,#375);
#314=AXIS2_PLACEMENT_3D('',#460,#376,#377);
#315=AXIS2_PLACEMENT_3D('',#462,#378,#379);
#316=AXIS2_PLACEMENT_3D('',#463,#380,#381);
#317=AXIS2_PLACEMENT_3D('',#465,#382,#383);
#318=AXIS2_PLACEMENT_3D('',#466,#384,#385);
#319=AXIS2_PLACEMENT_3D('',#467,#386,#387);
#320=AXIS2_PLACEMENT_3D('',#469,#388,#389);
#321=AXIS2_PLACEMENT_3D('',#470,#390,#391);
#322=AXIS2_PLACEMENT_3D('',#472,#392,#393);
#323=AXIS2_PLACEMENT_3D('',#473,#394,#395);
#324=AXIS2_PLACEMENT_3D('',#475,#396,#397);
#325=AXIS2_PLACEMENT_3D('',#476,#398,#399);
#326=AXIS2_PLACEMENT_3D('',#478,#400,#401);
#327=AXIS2_PLACEMENT_3D('',#479,#402,#403);
#328=AXIS2_PLACEMENT_3D('',#481,#404,#405);
#329=AXIS2_PLACEMENT_3D('',#482,#406,#407);
#330=AXIS2_PLACEMENT_3D('',#484,#408,#409);
#331=AXIS2_PLACEMENT_3D('',#485,#410,#411);
#332=AXIS2_PLACEMENT_3D('',#487,#412,#413);
#333=AXIS2_PLACEMENT_3D('',#488,#414,#415);
#334=AXIS2_PLACEMENT_3D('',#490,#416,#417);
#335=AXIS2_PLACEMENT_3D('',#491,#418,#419);
#336=AXIS2_PLACEMENT_3D('',#493,#420,#421);
#337=AXIS2_PLACEMENT_3D('',#494,#422,#423);
#338=AXIS2_PLACEMENT_3D('',#496,#424,#425);
#339=AXIS2_PLACEMENT_3D('',#497,#426,#427);
#340=AXIS2_PLACEMENT_3D('',#499,#428,#429);
#341=AXIS2_PLACEMENT_3D('',#500,#430,#431);
#342=DIRECTION('',(0.,0.,1.));
#343=DIRECTION('',(1.,0.,0.));
#344=DIRECTION('',(0.,0.,1.));
#345=DIRECTION('',(1.,0.,0.));
#346=DIRECTION('',(0.,0.,1.));
#347=DIRECTION('',(1.,0.,0.));
#348=DIRECTION('',(0.,0.,1.));
#349=DIRECTION('',(1.,0.,0.));
#350=DIRECTION('',(0.,0.,1.));
#351=DIRECTION('',(1.,0.,0.));
#352=DIRECTION('',(0.,0.,-1.));
#353=DIRECTION('',(-1.,0.,-5.0031697037619E-17));
#354=DIRECTION('',(0.,0.,-1.));
#355=DIRECTION('',(1.,0.,0.));
#356=DIRECTION('',(0.,0.,-1.));
#357=DIRECTION('',(1.,0.,0.));
#358=DIRECTION('',(0.,0.,-1.));
#359=DIRECTION('',(-1.,0.,0.));
#360=DIRECTION('',(0.,0.,-1.));
#361=DIRECTION('',(1.,0.,0.));
#362=DIRECTION('',(0.,0.,-1.));
#363=DIRECTION('',(-1.,0.,0.));
#364=DIRECTION('',(0.,0.,-1.));
#365=DIRECTION('',(1.,0.,0.));
#366=DIRECTION('',(0.,0.,1.));
#367=DIRECTION('',(1.,0.,9.20755533416223E-18));
#368=DIRECTION('',(0.,0.,-1.));
#369=DIRECTION('',(1.,0.,0.));
#370=DIRECTION('',(0.,0.,-1.));
#371=DIRECTION('',(-1.,0.,0.));
#372=DIRECTION('',(0.,0.,-1.));
#373=DIRECTION('',(1.,0.,0.));
#374=DIRECTION('',(0.,0.,1.));
#375=DIRECTION('',(1.,0.,0.));
#376=DIRECTION('',(0.,0.,-1.));
#377=DIRECTION('',(1.,0.,0.));
#378=DIRECTION('',(0.,0.,-1.));
#379=DIRECTION('',(-1.,0.,0.));
#380=DIRECTION('',(0.,0.,-1.));
#381=DIRECTION('',(1.,0.,0.));
#382=DIRECTION('',(0.,0.,-1.));
#383=DIRECTION('',(-1.,0.,0.));
#384=DIRECTION('',(0.,0.,-1.));
#385=DIRECTION('',(-1.,0.,0.));
#386=DIRECTION('',(0.,0.,1.));
#387=DIRECTION('',(1.,0.,0.));
#388=DIRECTION('',(0.,0.,-1.));
#389=DIRECTION('',(-1.,0.,0.));
#390=DIRECTION('',(0.,0.,1.));
#391=DIRECTION('',(1.,0.,0.));
#392=DIRECTION('',(0.,0.,-1.));
#393=DIRECTION('',(-1.,0.,0.));
#394=DIRECTION('',(0.,0.,1.));
#395=DIRECTION('',(1.,0.,0.));
#396=DIRECTION('',(0.,0.,-1.));
#397=DIRECTION('',(-1.,0.,7.43235778540601E-18));
#398=DIRECTION('',(0.,0.,1.));
#399=DIRECTION('',(1.,0.,0.));
#400=DIRECTION('',(0.,0.,-1.));
#401=DIRECTION('',(-1.,0.,0.));
#402=DIRECTION('',(0.,0.,1.));
#403=DIRECTION('',(1.,0.,0.));
#404=DIRECTION('',(0.,0.,1.));
#405=DIRECTION('',(1.,0.,1.16183139176962E-17));
#406=DIRECTION('',(0.,0.,1.));
#407=DIRECTION('',(1.,0.,0.));
#408=DIRECTION('',(0.,0.,-1.));
#409=DIRECTION('',(-1.,0.,-9.02037780854331E-16));
#410=DIRECTION('',(0.,0.,1.));
#411=DIRECTION('',(1.,0.,0.));
#412=DIRECTION('',(0.,0.,-1.));
#413=DIRECTION('',(-1.,0.,-7.43085195752396E-18));
#414=DIRECTION('',(0.,0.,1.));
#415=DIRECTION('',(1.,0.,0.));
#416=DIRECTION('',(0.,0.,-1.));
#417=DIRECTION('',(-1.,0.,0.));
#418=DIRECTION('',(0.,0.,1.));
#419=DIRECTION('',(1.,0.,0.));
#420=DIRECTION('',(0.,0.,-1.));
#421=DIRECTION('',(-1.,0.,0.));
#422=DIRECTION('',(0.,0.,1.));
#423=DIRECTION('',(1.,0.,0.));
#424=DIRECTION('',(0.,0.,-1.));
#425=DIRECTION('',(-1.,0.,0.));
#426=DIRECTION('',(0.,0.,1.));
#427=DIRECTION('',(1.,0.,0.));
#428=DIRECTION('',(0.,0.,-1.));
#429=DIRECTION('',(-1.,0.,-1.80376697781353E-15));
#430=DIRECTION('',(0.,0.,-1.));
#431=DIRECTION('',(-1.,0.,6.91407211112557E-17));
#432=CARTESIAN_POINT('',(0.,0.,0.));
#433=CARTESIAN_POINT('',(0.,0.,0.));
#434=CARTESIAN_POINT('',(0.,0.,-48.));
#435=CARTESIAN_POINT('',(0.,0.,-120.));
#436=CARTESIAN_POINT('',(0.,0.,0.));
#437=CARTESIAN_POINT('',(0.,0.,-48.));
#438=CARTESIAN_POINT('',(0.,0.,-120.));
#439=CARTESIAN_POINT('',(0.,0.,-107.));
#440=CARTESIAN_POINT('',(2.225,0.,-107.));
#441=CARTESIAN_POINT('',(0.,0.,-105.663085122664));
#442=CARTESIAN_POINT('',(0.,0.,-105.663085122664));
#443=CARTESIAN_POINT('',(0.,0.,-83.));
#444=CARTESIAN_POINT('',(7.99724999999998,0.,-83.));
#445=CARTESIAN_POINT('',(0.,0.,-1.));
#446=CARTESIAN_POINT('',(7.99725,0.,-1.));
#447=CARTESIAN_POINT('',(0.,0.,70.5183697733042));
#448=CARTESIAN_POINT('',(0.,0.,-83.7591602604652));
#449=CARTESIAN_POINT('',(7.44959044251842,0.,-83.7591602604652));
#450=CARTESIAN_POINT('',(0.,0.,-83.));
#451=CARTESIAN_POINT('',(0.,0.,-84.2548016646846));
#452=CARTESIAN_POINT('',(5.95846498609429,0.,-84.2548016646846));
#453=CARTESIAN_POINT('',(0.,0.,-84.2548016646846));
#454=CARTESIAN_POINT('',(0.,0.,-85.));
#455=CARTESIAN_POINT('',(5.41092727248761,0.,-85.));
#456=CARTESIAN_POINT('',(0.,0.,-85.0139619251498));
#457=CARTESIAN_POINT('',(0.,0.,-120.));
#458=CARTESIAN_POINT('',(4.8,0.,-120.));
#459=CARTESIAN_POINT('',(0.,0.,-120.));
#460=CARTESIAN_POINT('',(0.,0.,-120.));
#461=CARTESIAN_POINT('',(4.09003961525413,0.,-120.));
#462=CARTESIAN_POINT('',(1.68753899743024E-14,0.,-120.));
#463=CARTESIAN_POINT('',(0.,0.,0.));
#464=CARTESIAN_POINT('',(6.99725,0.,0.));
#465=CARTESIAN_POINT('',(0.,0.,0.));
#466=CARTESIAN_POINT('',(0.,0.,0.));
#467=CARTESIAN_POINT('',(0.,0.,-110.3));
#468=CARTESIAN_POINT('',(2.225,0.,-110.3));
#469=CARTESIAN_POINT('',(0.,0.,-120.));
#470=CARTESIAN_POINT('',(0.,0.,-110.493185165258));
#471=CARTESIAN_POINT('',(2.3732361909795,0.,-110.493185165258));
#472=CARTESIAN_POINT('',(0.,0.,-110.3));
#473=CARTESIAN_POINT('',(0.,0.,-110.504222943619));
#474=CARTESIAN_POINT('',(2.41442974062627,0.,-110.504222943619));
#475=CARTESIAN_POINT('',(0.,0.,-110.493185165258));
#476=CARTESIAN_POINT('',(0.,0.,-111.889799159145));
#477=CARTESIAN_POINT('',(2.72160459229349,0.,-111.889799159145));
#478=CARTESIAN_POINT('',(0.,0.,-111.27696360465));
#479=CARTESIAN_POINT('',(0.,0.,-112.));
#480=CARTESIAN_POINT('',(2.59027234429821,0.,-112.));
#481=CARTESIAN_POINT('',(0.,0.,-111.889799159145));
#482=CARTESIAN_POINT('',(0.,0.,-117.13516562237));
#483=CARTESIAN_POINT('',(3.13,0.,-117.13516562237));
#484=CARTESIAN_POINT('',(0.,0.,-112.));
#485=CARTESIAN_POINT('',(0.,0.,-117.234279626963));
#486=CARTESIAN_POINT('',(3.49989850088453,0.,-117.234279626963));
#487=CARTESIAN_POINT('',(0.,0.,-117.13516562237));
#488=CARTESIAN_POINT('',(0.,0.,-117.427464792221));
#489=CARTESIAN_POINT('',(3.64813469186403,0.,-117.427464792221));
#490=CARTESIAN_POINT('',(0.,0.,-117.427464792221));
#491=CARTESIAN_POINT('',(0.,0.,-118.126794919243));
#492=CARTESIAN_POINT('',(3.64813469186403,0.,-118.126794919243));
#493=CARTESIAN_POINT('',(0.,0.,-120.));
#494=CARTESIAN_POINT('',(0.,0.,-118.3));
#495=CARTESIAN_POINT('',(3.54813469186403,0.,-118.3));
#496=CARTESIAN_POINT('',(0.,0.,-118.126794919243));
#497=CARTESIAN_POINT('',(0.,0.,-119.5));
#498=CARTESIAN_POINT('',(3.59003961525413,0.,-119.5));
#499=CARTESIAN_POINT('',(0.,0.,-118.3));
#500=CARTESIAN_POINT('',(0.,0.,-119.5));
#501=MECHANICAL_DESIGN_GEOMETRIC_PRESENTATION_REPRESENTATION('',(#275,#276,
#277,#278,#279,#280,#281),#502);
#502=(
GEOMETRIC_REPRESENTATION_CONTEXT(3)
GLOBAL_UNCERTAINTY_ASSIGNED_CONTEXT((#503))
GLOBAL_UNIT_ASSIGNED_CONTEXT((#509,#505,#504))
REPRESENTATION_CONTEXT('XE10160J3-120-01','TOP_LEVEL_ASSEMBLY_PART')
);
#503=UNCERTAINTY_MEASURE_WITH_UNIT(LENGTH_MEASURE(2.E-5),#509,
'DISTANCE_ACCURACY_VALUE','Maximum Tolerance applied to model');
#504=(
NAMED_UNIT(*)
SI_UNIT($,.STERADIAN.)
SOLID_ANGLE_UNIT()
);
#505=(
CONVERSION_BASED_UNIT('DEGREE',#507)
NAMED_UNIT(#506)
PLANE_ANGLE_UNIT()
);
#506=DIMENSIONAL_EXPONENTS(0.,0.,0.,0.,0.,0.,0.);
#507=PLANE_ANGLE_MEASURE_WITH_UNIT(PLANE_ANGLE_MEASURE(0.0174532925),#508);
#508=(
NAMED_UNIT(*)
PLANE_ANGLE_UNIT()
SI_UNIT($,.RADIAN.)
);
#509=(
LENGTH_UNIT()
NAMED_UNIT(*)
SI_UNIT(.MILLI.,.METRE.)
);
ENDSEC;
END-ISO-10303-21;
