ISO-10303-21;
HEADER;
/* Generated by software containing ST-Developer
 * from STEP Tools, Inc. (www.steptools.com) 
 */
/* OPTION: using custom schema-name function */

FILE_DESCRIPTION(
/* description */ (''),
/* implementation_level */ '2;1');

FILE_NAME(
/* name */ 'XE201.00J4-8.00-01.0E_Basic.stp',
/* time_stamp */ '2022-08-02T14:36:33+05:00',
/* author */ (''),
/* organization */ (''),
/* preprocessor_version */ 'ST-DEVELOPER v16.7',
/* originating_system */ 'SIEMENS PLM Software NX 12.0',
/* authorisation */ '');

FILE_SCHEMA (('AUTOMOTIVE_DESIGN { 1 0 10303 214 3 1 1 1 }'));
ENDSEC;

DATA;
#10=CONSTRUCTIVE_GEOMETRY_REPRESENTATION_RELATIONSHIP(
'supplemental geometry','',#32,#11);
#11=CONSTRUCTIVE_GEOMETRY_REPRESENTATION('supplemental geometry',(#294,
#295,#296),#504);
#12=PROPERTY_DEFINITION_REPRESENTATION(#16,#14);
#13=PROPERTY_DEFINITION_REPRESENTATION(#17,#15);
#14=REPRESENTATION('',(#18),#504);
#15=REPRESENTATION('',(#19),#504);
#16=PROPERTY_DEFINITION('pmi validation property','',#23);
#17=PROPERTY_DEFINITION('pmi validation property','',#23);
#18=VALUE_REPRESENTATION_ITEM('number of annotations',COUNT_MEASURE(0.));
#19=VALUE_REPRESENTATION_ITEM('number of views',COUNT_MEASURE(0.));
#20=SHAPE_REPRESENTATION_RELATIONSHIP('None',
'relationship between inco283C32F3z34b-None and inco283C32F3z34b-None',
#32,#21);
#21=ADVANCED_BREP_SHAPE_REPRESENTATION('inco283C32F3z34b-None',(#38),#504);
#22=SHAPE_DEFINITION_REPRESENTATION(#23,#32);
#23=PRODUCT_DEFINITION_SHAPE('','',#24);
#24=PRODUCT_DEFINITION(' ','',#26,#25);
#25=PRODUCT_DEFINITION_CONTEXT('part definition',#31,'design');
#26=PRODUCT_DEFINITION_FORMATION_WITH_SPECIFIED_SOURCE(' ',' ',#28,
 .NOT_KNOWN.);
#27=PRODUCT_RELATED_PRODUCT_CATEGORY('part','',(#28));
#28=PRODUCT('inco283C32F3z34b','inco283C32F3z34b',' ',(#29));
#29=PRODUCT_CONTEXT(' ',#31,'mechanical');
#30=APPLICATION_PROTOCOL_DEFINITION('international standard',
'automotive_design',2010,#31);
#31=APPLICATION_CONTEXT(
'core data for automotive mechanical design processes');
#32=SHAPE_REPRESENTATION('inco283C32F3z34b-None',(#293),#504);
#33=SURFACE_STYLE_USAGE(.BOTH.,#34);
#34=SURFACE_SIDE_STYLE('',(#35));
#35=SURFACE_STYLE_FILL_AREA(#36);
#36=FILL_AREA_STYLE('',(#37));
#37=FILL_AREA_STYLE_COLOUR('',#289);
#38=MANIFOLD_SOLID_BREP('NOCUT',#39);
#39=CLOSED_SHELL('',(#61,#62,#63,#64,#65,#66,#67,#68,#69,#70,#71,#72,#73,
#74,#75,#76,#77,#78,#79,#80,#81,#82));
#40=VERTEX_LOOP('',#221);
#41=FACE_OUTER_BOUND('',#140,.T.);
#42=PLANE('',#309);
#43=PLANE('',#311);
#44=CONICAL_SURFACE('',#303,10.8718229468305,49.0201406275432);
#45=CONICAL_SURFACE('',#307,9.2,0.999999999999986);
#46=CONICAL_SURFACE('',#312,11.19675,45.);
#47=CONICAL_SURFACE('',#314,0.,59.);
#48=CONICAL_SURFACE('',#320,4.95554072893323,80.0000000000007);
#49=CONICAL_SURFACE('',#324,5.77120549174436,69.9999999999998);
#50=CONICAL_SURFACE('',#328,5.28680918566302,5.99999999999999);
#51=CONICAL_SURFACE('',#330,6.2153,70.0000000000001);
#52=CONICAL_SURFACE('',#338,7.25769807627063,2.);
#53=CONICAL_SURFACE('',#339,7.32404753830495,46.9999999999999);
#54=TOROIDAL_SURFACE('',#301,11.89675,0.79999999999998);
#55=TOROIDAL_SURFACE('',#305,11.3964579010318,0.800000000000012);
#56=TOROIDAL_SURFACE('',#318,5.025,0.4);
#57=TOROIDAL_SURFACE('',#322,5.32657930542099,1.3);
#58=TOROIDAL_SURFACE('',#326,5.68461794381033,0.4);
#59=TOROIDAL_SURFACE('',#332,6.85769807627063,0.5);
#60=TOROIDAL_SURFACE('',#336,6.85769807627063,0.500000000000001);
#61=ADVANCED_FACE('FP_EH_SU1',(#86,#87),#83,.T.);
#62=ADVANCED_FACE('',(#88,#89),#54,.T.);
#63=ADVANCED_FACE('FP_EH_SU2',(#90,#91),#44,.T.);
#64=ADVANCED_FACE('',(#92,#93),#55,.F.);
#65=ADVANCED_FACE('FP_EH_SU3',(#94,#95),#45,.T.);
#66=ADVANCED_FACE('FP_EH_SU4',(#96,#97),#42,.T.);
#67=ADVANCED_FACE('',(#41),#43,.F.);
#68=ADVANCED_FACE('',(#98,#99),#46,.T.);
#69=ADVANCED_FACE('',(#100,#101),#47,.F.);
#70=ADVANCED_FACE('DCH3',(#102,#103),#84,.F.);
#71=ADVANCED_FACE('',(#104,#105),#56,.T.);
#72=ADVANCED_FACE('',(#106,#107),#48,.F.);
#73=ADVANCED_FACE('',(#108,#109),#57,.F.);
#74=ADVANCED_FACE('',(#110,#111),#49,.F.);
#75=ADVANCED_FACE('',(#112,#113),#58,.T.);
#76=ADVANCED_FACE('TSALN',(#114,#115),#50,.F.);
#77=ADVANCED_FACE('',(#116,#117),#51,.F.);
#78=ADVANCED_FACE('',(#118,#119),#59,.F.);
#79=ADVANCED_FACE('DCH2',(#120,#121),#85,.F.);
#80=ADVANCED_FACE('',(#122,#123),#60,.F.);
#81=ADVANCED_FACE('TSAN',(#124,#125),#52,.F.);
#82=ADVANCED_FACE('DCH4',(#126,#127),#53,.F.);
#83=CYLINDRICAL_SURFACE('',#299,12.69675);
#84=CYLINDRICAL_SURFACE('',#316,4.625);
#85=CYLINDRICAL_SURFACE('',#334,7.35769807627063);
#86=FACE_BOUND('',#128,.T.);
#87=FACE_BOUND('',#129,.T.);
#88=FACE_BOUND('',#130,.T.);
#89=FACE_BOUND('',#131,.T.);
#90=FACE_BOUND('',#132,.T.);
#91=FACE_BOUND('',#133,.T.);
#92=FACE_BOUND('',#134,.T.);
#93=FACE_BOUND('',#135,.T.);
#94=FACE_BOUND('',#136,.T.);
#95=FACE_BOUND('',#137,.T.);
#96=FACE_BOUND('',#138,.T.);
#97=FACE_BOUND('',#139,.T.);
#98=FACE_BOUND('',#141,.T.);
#99=FACE_BOUND('',#142,.T.);
#100=FACE_BOUND('',#143,.T.);
#101=FACE_BOUND('',#40,.T.);
#102=FACE_BOUND('',#144,.T.);
#103=FACE_BOUND('',#145,.T.);
#104=FACE_BOUND('',#146,.T.);
#105=FACE_BOUND('',#147,.T.);
#106=FACE_BOUND('',#148,.T.);
#107=FACE_BOUND('',#149,.T.);
#108=FACE_BOUND('',#150,.T.);
#109=FACE_BOUND('',#151,.T.);
#110=FACE_BOUND('',#152,.T.);
#111=FACE_BOUND('',#153,.T.);
#112=FACE_BOUND('',#154,.T.);
#113=FACE_BOUND('',#155,.T.);
#114=FACE_BOUND('',#156,.T.);
#115=FACE_BOUND('',#157,.T.);
#116=FACE_BOUND('',#158,.T.);
#117=FACE_BOUND('',#159,.T.);
#118=FACE_BOUND('',#160,.T.);
#119=FACE_BOUND('',#161,.T.);
#120=FACE_BOUND('',#162,.T.);
#121=FACE_BOUND('',#163,.T.);
#122=FACE_BOUND('',#164,.T.);
#123=FACE_BOUND('',#165,.T.);
#124=FACE_BOUND('',#166,.T.);
#125=FACE_BOUND('',#167,.T.);
#126=FACE_BOUND('',#168,.T.);
#127=FACE_BOUND('',#169,.T.);
#128=EDGE_LOOP('',(#170));
#129=EDGE_LOOP('',(#171));
#130=EDGE_LOOP('',(#172));
#131=EDGE_LOOP('',(#173));
#132=EDGE_LOOP('',(#174));
#133=EDGE_LOOP('',(#175));
#134=EDGE_LOOP('',(#176));
#135=EDGE_LOOP('',(#177));
#136=EDGE_LOOP('',(#178));
#137=EDGE_LOOP('',(#179));
#138=EDGE_LOOP('',(#180));
#139=EDGE_LOOP('',(#181));
#140=EDGE_LOOP('',(#182));
#141=EDGE_LOOP('',(#183));
#142=EDGE_LOOP('',(#184));
#143=EDGE_LOOP('',(#185));
#144=EDGE_LOOP('',(#186));
#145=EDGE_LOOP('',(#187));
#146=EDGE_LOOP('',(#188));
#147=EDGE_LOOP('',(#189));
#148=EDGE_LOOP('',(#190));
#149=EDGE_LOOP('',(#191));
#150=EDGE_LOOP('',(#192));
#151=EDGE_LOOP('',(#193));
#152=EDGE_LOOP('',(#194));
#153=EDGE_LOOP('',(#195));
#154=EDGE_LOOP('',(#196));
#155=EDGE_LOOP('',(#197));
#156=EDGE_LOOP('',(#198));
#157=EDGE_LOOP('',(#199));
#158=EDGE_LOOP('',(#200));
#159=EDGE_LOOP('',(#201));
#160=EDGE_LOOP('',(#202));
#161=EDGE_LOOP('',(#203));
#162=EDGE_LOOP('',(#204));
#163=EDGE_LOOP('',(#205));
#164=EDGE_LOOP('',(#206));
#165=EDGE_LOOP('',(#207));
#166=EDGE_LOOP('',(#208));
#167=EDGE_LOOP('',(#209));
#168=EDGE_LOOP('',(#210));
#169=EDGE_LOOP('',(#211));
#170=ORIENTED_EDGE('',*,*,#234,.F.);
#171=ORIENTED_EDGE('',*,*,#235,.T.);
#172=ORIENTED_EDGE('',*,*,#234,.T.);
#173=ORIENTED_EDGE('',*,*,#236,.F.);
#174=ORIENTED_EDGE('',*,*,#236,.T.);
#175=ORIENTED_EDGE('',*,*,#237,.F.);
#176=ORIENTED_EDGE('',*,*,#237,.T.);
#177=ORIENTED_EDGE('',*,*,#238,.F.);
#178=ORIENTED_EDGE('',*,*,#238,.T.);
#179=ORIENTED_EDGE('',*,*,#239,.F.);
#180=ORIENTED_EDGE('',*,*,#240,.F.);
#181=ORIENTED_EDGE('',*,*,#239,.T.);
#182=ORIENTED_EDGE('',*,*,#241,.F.);
#183=ORIENTED_EDGE('',*,*,#235,.F.);
#184=ORIENTED_EDGE('',*,*,#241,.T.);
#185=ORIENTED_EDGE('',*,*,#242,.T.);
#186=ORIENTED_EDGE('',*,*,#243,.T.);
#187=ORIENTED_EDGE('',*,*,#242,.F.);
#188=ORIENTED_EDGE('',*,*,#244,.T.);
#189=ORIENTED_EDGE('',*,*,#243,.F.);
#190=ORIENTED_EDGE('',*,*,#245,.T.);
#191=ORIENTED_EDGE('',*,*,#244,.F.);
#192=ORIENTED_EDGE('',*,*,#246,.T.);
#193=ORIENTED_EDGE('',*,*,#245,.F.);
#194=ORIENTED_EDGE('',*,*,#247,.T.);
#195=ORIENTED_EDGE('',*,*,#246,.F.);
#196=ORIENTED_EDGE('',*,*,#248,.T.);
#197=ORIENTED_EDGE('',*,*,#247,.F.);
#198=ORIENTED_EDGE('',*,*,#249,.T.);
#199=ORIENTED_EDGE('',*,*,#248,.F.);
#200=ORIENTED_EDGE('',*,*,#250,.T.);
#201=ORIENTED_EDGE('',*,*,#249,.F.);
#202=ORIENTED_EDGE('',*,*,#251,.T.);
#203=ORIENTED_EDGE('',*,*,#250,.F.);
#204=ORIENTED_EDGE('',*,*,#252,.T.);
#205=ORIENTED_EDGE('',*,*,#251,.F.);
#206=ORIENTED_EDGE('',*,*,#253,.T.);
#207=ORIENTED_EDGE('',*,*,#252,.F.);
#208=ORIENTED_EDGE('',*,*,#254,.T.);
#209=ORIENTED_EDGE('',*,*,#253,.F.);
#210=ORIENTED_EDGE('',*,*,#240,.T.);
#211=ORIENTED_EDGE('',*,*,#254,.F.);
#212=VERTEX_POINT('',#439);
#213=VERTEX_POINT('',#441);
#214=VERTEX_POINT('',#444);
#215=VERTEX_POINT('',#447);
#216=VERTEX_POINT('',#450);
#217=VERTEX_POINT('',#453);
#218=VERTEX_POINT('',#456);
#219=VERTEX_POINT('',#459);
#220=VERTEX_POINT('',#463);
#221=VERTEX_POINT('',#464);
#222=VERTEX_POINT('',#467);
#223=VERTEX_POINT('',#470);
#224=VERTEX_POINT('',#473);
#225=VERTEX_POINT('',#476);
#226=VERTEX_POINT('',#479);
#227=VERTEX_POINT('',#482);
#228=VERTEX_POINT('',#485);
#229=VERTEX_POINT('',#488);
#230=VERTEX_POINT('',#491);
#231=VERTEX_POINT('',#494);
#232=VERTEX_POINT('',#497);
#233=VERTEX_POINT('',#500);
#234=EDGE_CURVE('',#212,#212,#255,.T.);
#235=EDGE_CURVE('',#213,#213,#256,.T.);
#236=EDGE_CURVE('',#214,#214,#257,.T.);
#237=EDGE_CURVE('',#215,#215,#258,.T.);
#238=EDGE_CURVE('',#216,#216,#259,.T.);
#239=EDGE_CURVE('',#217,#217,#260,.T.);
#240=EDGE_CURVE('',#218,#218,#261,.T.);
#241=EDGE_CURVE('',#219,#219,#262,.T.);
#242=EDGE_CURVE('',#220,#220,#263,.T.);
#243=EDGE_CURVE('',#222,#222,#264,.T.);
#244=EDGE_CURVE('',#223,#223,#265,.T.);
#245=EDGE_CURVE('',#224,#224,#266,.T.);
#246=EDGE_CURVE('',#225,#225,#267,.T.);
#247=EDGE_CURVE('',#226,#226,#268,.T.);
#248=EDGE_CURVE('',#227,#227,#269,.T.);
#249=EDGE_CURVE('',#228,#228,#270,.T.);
#250=EDGE_CURVE('',#229,#229,#271,.T.);
#251=EDGE_CURVE('',#230,#230,#272,.T.);
#252=EDGE_CURVE('',#231,#231,#273,.T.);
#253=EDGE_CURVE('',#232,#232,#274,.T.);
#254=EDGE_CURVE('',#233,#233,#275,.T.);
#255=CIRCLE('',#297,12.69675);
#256=CIRCLE('',#298,12.69675);
#257=CIRCLE('',#300,12.4213849542012);
#258=CIRCLE('',#302,10.8718229468305);
#259=CIRCLE('',#304,10.5965797449067);
#260=CIRCLE('',#306,9.2);
#261=CIRCLE('',#308,7.96746876431976);
#262=CIRCLE('',#310,11.19675);
#263=CIRCLE('',#313,4.625);
#264=CIRCLE('',#315,4.625);
#265=CIRCLE('',#317,4.95554072893323);
#266=CIRCLE('',#319,5.552321936388);
#267=CIRCLE('',#321,5.77120549174436);
#268=CIRCLE('',#323,5.54780988648006);
#269=CIRCLE('',#325,5.28680918566302);
#270=CIRCLE('',#327,6.2153);
#271=CIRCLE('',#329,7.02870814793346);
#272=CIRCLE('',#331,7.35769807627063);
#273=CIRCLE('',#333,7.35769807627063);
#274=CIRCLE('',#335,7.25769807627063);
#275=CIRCLE('',#337,7.32404753830495);
#276=PRESENTATION_LAYER_ASSIGNMENT('1','Layer 1',(#294,#295,#296,#38));
#277=STYLED_ITEM('',(#281),#294);
#278=STYLED_ITEM('',(#282),#295);
#279=STYLED_ITEM('',(#283),#296);
#280=STYLED_ITEM('',(#284),#38);
#281=PRESENTATION_STYLE_ASSIGNMENT((#285));
#282=PRESENTATION_STYLE_ASSIGNMENT((#286));
#283=PRESENTATION_STYLE_ASSIGNMENT((#287));
#284=PRESENTATION_STYLE_ASSIGNMENT((#33));
#285=CURVE_STYLE('',#290,POSITIVE_LENGTH_MEASURE(0.18),#288);
#286=CURVE_STYLE('',#291,POSITIVE_LENGTH_MEASURE(0.18),#288);
#287=CURVE_STYLE('',#292,POSITIVE_LENGTH_MEASURE(0.18),#288);
#288=COLOUR_RGB('Strong Stone',0.576470588235294,0.54508278019379,0.392156862745098);
#289=COLOUR_RGB('Medium Gray',0.490196078431373,0.490196078431373,0.490196078431373);
#290=DRAUGHTING_PRE_DEFINED_CURVE_FONT('continuous');
#291=DRAUGHTING_PRE_DEFINED_CURVE_FONT('continuous');
#292=DRAUGHTING_PRE_DEFINED_CURVE_FONT('continuous');
#293=AXIS2_PLACEMENT_3D('',#434,#340,#341);
#294=AXIS2_PLACEMENT_3D('PCS',#435,#342,#343);
#295=AXIS2_PLACEMENT_3D('MCS',#436,#344,#345);
#296=AXIS2_PLACEMENT_3D('CSW',#437,#346,#347);
#297=AXIS2_PLACEMENT_3D('',#438,#348,#349);
#298=AXIS2_PLACEMENT_3D('',#440,#350,#351);
#299=AXIS2_PLACEMENT_3D('',#442,#352,#353);
#300=AXIS2_PLACEMENT_3D('',#443,#354,#355);
#301=AXIS2_PLACEMENT_3D('',#445,#356,#357);
#302=AXIS2_PLACEMENT_3D('',#446,#358,#359);
#303=AXIS2_PLACEMENT_3D('',#448,#360,#361);
#304=AXIS2_PLACEMENT_3D('',#449,#362,#363);
#305=AXIS2_PLACEMENT_3D('',#451,#364,#365);
#306=AXIS2_PLACEMENT_3D('',#452,#366,#367);
#307=AXIS2_PLACEMENT_3D('',#454,#368,#369);
#308=AXIS2_PLACEMENT_3D('',#455,#370,#371);
#309=AXIS2_PLACEMENT_3D('',#457,#372,#373);
#310=AXIS2_PLACEMENT_3D('',#458,#374,#375);
#311=AXIS2_PLACEMENT_3D('',#460,#376,#377);
#312=AXIS2_PLACEMENT_3D('',#461,#378,#379);
#313=AXIS2_PLACEMENT_3D('',#462,#380,#381);
#314=AXIS2_PLACEMENT_3D('',#465,#382,#383);
#315=AXIS2_PLACEMENT_3D('',#466,#384,#385);
#316=AXIS2_PLACEMENT_3D('',#468,#386,#387);
#317=AXIS2_PLACEMENT_3D('',#469,#388,#389);
#318=AXIS2_PLACEMENT_3D('',#471,#390,#391);
#319=AXIS2_PLACEMENT_3D('',#472,#392,#393);
#320=AXIS2_PLACEMENT_3D('',#474,#394,#395);
#321=AXIS2_PLACEMENT_3D('',#475,#396,#397);
#322=AXIS2_PLACEMENT_3D('',#477,#398,#399);
#323=AXIS2_PLACEMENT_3D('',#478,#400,#401);
#324=AXIS2_PLACEMENT_3D('',#480,#402,#403);
#325=AXIS2_PLACEMENT_3D('',#481,#404,#405);
#326=AXIS2_PLACEMENT_3D('',#483,#406,#407);
#327=AXIS2_PLACEMENT_3D('',#484,#408,#409);
#328=AXIS2_PLACEMENT_3D('',#486,#410,#411);
#329=AXIS2_PLACEMENT_3D('',#487,#412,#413);
#330=AXIS2_PLACEMENT_3D('',#489,#414,#415);
#331=AXIS2_PLACEMENT_3D('',#490,#416,#417);
#332=AXIS2_PLACEMENT_3D('',#492,#418,#419);
#333=AXIS2_PLACEMENT_3D('',#493,#420,#421);
#334=AXIS2_PLACEMENT_3D('',#495,#422,#423);
#335=AXIS2_PLACEMENT_3D('',#496,#424,#425);
#336=AXIS2_PLACEMENT_3D('',#498,#426,#427);
#337=AXIS2_PLACEMENT_3D('',#499,#428,#429);
#338=AXIS2_PLACEMENT_3D('',#501,#430,#431);
#339=AXIS2_PLACEMENT_3D('',#502,#432,#433);
#340=DIRECTION('',(0.,0.,1.));
#341=DIRECTION('',(1.,0.,0.));
#342=DIRECTION('',(0.,0.,1.));
#343=DIRECTION('',(1.,0.,0.));
#344=DIRECTION('',(0.,0.,1.));
#345=DIRECTION('',(1.,0.,0.));
#346=DIRECTION('',(0.,0.,1.));
#347=DIRECTION('',(1.,0.,0.));
#348=DIRECTION('',(0.,0.,-1.));
#349=DIRECTION('',(1.,0.,0.));
#350=DIRECTION('',(0.,0.,-1.));
#351=DIRECTION('',(1.,0.,0.));
#352=DIRECTION('',(0.,0.,-1.));
#353=DIRECTION('',(1.,0.,0.));
#354=DIRECTION('',(0.,0.,-1.));
#355=DIRECTION('',(1.,0.,0.));
#356=DIRECTION('',(0.,0.,-1.));
#357=DIRECTION('',(1.,0.,0.));
#358=DIRECTION('',(0.,0.,-1.));
#359=DIRECTION('',(1.,0.,0.));
#360=DIRECTION('',(0.,0.,1.));
#361=DIRECTION('',(-1.,0.,0.));
#362=DIRECTION('',(0.,0.,-1.));
#363=DIRECTION('',(1.,0.,0.));
#364=DIRECTION('',(0.,0.,-1.));
#365=DIRECTION('',(1.,0.,0.));
#366=DIRECTION('',(0.,0.,-1.));
#367=DIRECTION('',(1.,0.,0.));
#368=DIRECTION('',(0.,0.,1.));
#369=DIRECTION('',(-1.,0.,-2.08257422672766E-15));
#370=DIRECTION('',(0.,0.,-1.));
#371=DIRECTION('',(1.,0.,0.));
#372=DIRECTION('',(0.,0.,-1.));
#373=DIRECTION('',(1.,0.,0.));
#374=DIRECTION('',(0.,0.,-1.));
#375=DIRECTION('',(1.,0.,0.));
#376=DIRECTION('',(0.,0.,-1.));
#377=DIRECTION('',(1.,0.,0.));
#378=DIRECTION('',(0.,0.,-1.));
#379=DIRECTION('',(1.,0.,0.));
#380=DIRECTION('',(0.,0.,-1.));
#381=DIRECTION('',(1.,0.,0.));
#382=DIRECTION('',(0.,0.,-1.));
#383=DIRECTION('',(1.,0.,-6.67089293834922E-17));
#384=DIRECTION('',(0.,0.,-1.));
#385=DIRECTION('',(1.,0.,0.));
#386=DIRECTION('',(0.,0.,-1.));
#387=DIRECTION('',(1.,0.,0.));
#388=DIRECTION('',(0.,0.,-1.));
#389=DIRECTION('',(1.,0.,0.));
#390=DIRECTION('',(0.,0.,-1.));
#391=DIRECTION('',(1.,0.,0.));
#392=DIRECTION('',(0.,0.,-1.));
#393=DIRECTION('',(1.,0.,0.));
#394=DIRECTION('',(0.,0.,-1.));
#395=DIRECTION('',(1.,0.,-1.46693525236576E-17));
#396=DIRECTION('',(0.,0.,-1.));
#397=DIRECTION('',(1.,0.,0.));
#398=DIRECTION('',(0.,0.,-1.));
#399=DIRECTION('',(1.,0.,0.));
#400=DIRECTION('',(0.,0.,-1.));
#401=DIRECTION('',(1.,0.,0.));
#402=DIRECTION('',(0.,0.,1.));
#403=DIRECTION('',(-1.,0.,-2.01620553728016E-17));
#404=DIRECTION('',(0.,0.,-1.));
#405=DIRECTION('',(1.,0.,0.));
#406=DIRECTION('',(0.,0.,-1.));
#407=DIRECTION('',(1.,0.,0.));
#408=DIRECTION('',(0.,0.,-1.));
#409=DIRECTION('',(1.,0.,0.));
#410=DIRECTION('',(0.,0.,-1.));
#411=DIRECTION('',(1.,0.,-5.02859190318897E-16));
#412=DIRECTION('',(0.,0.,-1.));
#413=DIRECTION('',(1.,0.,0.));
#414=DIRECTION('',(0.,0.,-1.));
#415=DIRECTION('',(1.,0.,-2.0158803790661E-17));
#416=DIRECTION('',(0.,0.,-1.));
#417=DIRECTION('',(1.,0.,0.));
#418=DIRECTION('',(0.,0.,-1.));
#419=DIRECTION('',(1.,0.,0.));
#420=DIRECTION('',(0.,0.,-1.));
#421=DIRECTION('',(1.,0.,0.));
#422=DIRECTION('',(0.,0.,-1.));
#423=DIRECTION('',(1.,0.,0.));
#424=DIRECTION('',(0.,0.,-1.));
#425=DIRECTION('',(1.,0.,0.));
#426=DIRECTION('',(0.,0.,-1.));
#427=DIRECTION('',(1.,0.,0.));
#428=DIRECTION('',(0.,0.,-1.));
#429=DIRECTION('',(1.,0.,0.));
#430=DIRECTION('',(0.,0.,-1.));
#431=DIRECTION('',(1.,0.,2.63220332231079E-15));
#432=DIRECTION('',(0.,0.,-1.));
#433=DIRECTION('',(1.,0.,1.02827681009094E-16));
#434=CARTESIAN_POINT('',(0.,0.,0.));
#435=CARTESIAN_POINT('',(0.,0.,0.));
#436=CARTESIAN_POINT('',(0.,0.,-56.));
#437=CARTESIAN_POINT('',(0.,0.,-203.2));
#438=CARTESIAN_POINT('',(0.,0.,-120.65));
#439=CARTESIAN_POINT('',(12.69675,0.,-120.65));
#440=CARTESIAN_POINT('',(0.,0.,-1.5));
#441=CARTESIAN_POINT('',(12.69675,0.,-1.5));
#442=CARTESIAN_POINT('',(0.,0.,70.5183697733042));
#443=CARTESIAN_POINT('',(0.,0.,-121.253952121306));
#444=CARTESIAN_POINT('',(12.4213849542012,0.,-121.253952121306));
#445=CARTESIAN_POINT('',(0.,0.,-120.65));
#446=CARTESIAN_POINT('',(0.,0.,-122.600009803844));
#447=CARTESIAN_POINT('',(10.8718229468305,0.,-122.600009803844));
#448=CARTESIAN_POINT('',(0.,0.,-122.600009803844));
#449=CARTESIAN_POINT('',(0.,0.,-123.19));
#450=CARTESIAN_POINT('',(10.5965797449067,0.,-123.19));
#451=CARTESIAN_POINT('',(0.,0.,-123.20396192515));
#452=CARTESIAN_POINT('',(0.,0.,-203.2));
#453=CARTESIAN_POINT('',(9.2,0.,-203.2));
#454=CARTESIAN_POINT('',(0.,0.,-203.2));
#455=CARTESIAN_POINT('',(0.,0.,-203.2));
#456=CARTESIAN_POINT('',(7.96746876431976,0.,-203.2));
#457=CARTESIAN_POINT('',(2.66453525910038E-14,0.,-203.2));
#458=CARTESIAN_POINT('',(0.,0.,0.));
#459=CARTESIAN_POINT('',(11.19675,0.,0.));
#460=CARTESIAN_POINT('',(0.,0.,0.));
#461=CARTESIAN_POINT('',(0.,0.,0.));
#462=CARTESIAN_POINT('',(0.,0.,-181.7));
#463=CARTESIAN_POINT('',(4.625,0.,-181.7));
#464=CARTESIAN_POINT('',(0.,0.,-178.921019636998));
#465=CARTESIAN_POINT('',(0.,0.,-178.921019636998));
#466=CARTESIAN_POINT('',(0.,0.,-185.7));
#467=CARTESIAN_POINT('',(4.625,0.,-185.7));
#468=CARTESIAN_POINT('',(0.,0.,-203.2));
#469=CARTESIAN_POINT('',(0.,0.,-186.093923101205));
#470=CARTESIAN_POINT('',(4.95554072893323,0.,-186.093923101205));
#471=CARTESIAN_POINT('',(0.,0.,-185.7));
#472=CARTESIAN_POINT('',(0.,0.,-186.199151729659));
#473=CARTESIAN_POINT('',(5.552321936388,0.,-186.199151729659));
#474=CARTESIAN_POINT('',(0.,0.,-186.093923101205));
#475=CARTESIAN_POINT('',(0.,0.,-188.701002215597));
#476=CARTESIAN_POINT('',(5.77120549174436,0.,-188.701002215597));
#477=CARTESIAN_POINT('',(0.,0.,-187.479401808575));
#478=CARTESIAN_POINT('',(0.,0.,-188.782311566379));
#479=CARTESIAN_POINT('',(5.54780988648006,0.,-188.782311566379));
#480=CARTESIAN_POINT('',(0.,0.,-188.701002215597));
#481=CARTESIAN_POINT('',(0.,0.,-189.2));
#482=CARTESIAN_POINT('',(5.28680918566302,0.,-189.2));
#483=CARTESIAN_POINT('',(0.,0.,-189.158188614693));
#484=CARTESIAN_POINT('',(0.,0.,-198.034));
#485=CARTESIAN_POINT('',(6.2153,0.,-198.034));
#486=CARTESIAN_POINT('',(0.,0.,-189.2));
#487=CARTESIAN_POINT('',(0.,0.,-198.330056354157));
#488=CARTESIAN_POINT('',(7.02870814793346,0.,-198.330056354157));
#489=CARTESIAN_POINT('',(0.,0.,-198.034));
#490=CARTESIAN_POINT('',(0.,0.,-198.79990266455));
#491=CARTESIAN_POINT('',(7.35769807627063,0.,-198.79990266455));
#492=CARTESIAN_POINT('',(0.,0.,-198.79990266455));
#493=CARTESIAN_POINT('',(0.,0.,-200.4));
#494=CARTESIAN_POINT('',(7.35769807627063,0.,-200.4));
#495=CARTESIAN_POINT('',(0.,0.,-203.2));
#496=CARTESIAN_POINT('',(0.,0.,-200.7));
#497=CARTESIAN_POINT('',(7.25769807627063,0.,-200.7));
#498=CARTESIAN_POINT('',(0.,0.,-200.4));
#499=CARTESIAN_POINT('',(0.,0.,-202.6));
#500=CARTESIAN_POINT('',(7.32404753830495,0.,-202.6));
#501=CARTESIAN_POINT('',(0.,0.,-200.7));
#502=CARTESIAN_POINT('',(0.,0.,-202.6));
#503=MECHANICAL_DESIGN_GEOMETRIC_PRESENTATION_REPRESENTATION('',(#277,#278,
#279,#280),#504);
#504=(
GEOMETRIC_REPRESENTATION_CONTEXT(3)
GLOBAL_UNCERTAINTY_ASSIGNED_CONTEXT((#505))
GLOBAL_UNIT_ASSIGNED_CONTEXT((#511,#507,#506))
REPRESENTATION_CONTEXT('XE201.00J4-8.00-01','TOP_LEVEL_ASSEMBLY_PART')
);
#505=UNCERTAINTY_MEASURE_WITH_UNIT(LENGTH_MEASURE(2.E-5),#511,
'DISTANCE_ACCURACY_VALUE','Maximum Tolerance applied to model');
#506=(
NAMED_UNIT(*)
SI_UNIT($,.STERADIAN.)
SOLID_ANGLE_UNIT()
);
#507=(
CONVERSION_BASED_UNIT('DEGREE',#509)
NAMED_UNIT(#508)
PLANE_ANGLE_UNIT()
);
#508=DIMENSIONAL_EXPONENTS(0.,0.,0.,0.,0.,0.,0.);
#509=PLANE_ANGLE_MEASURE_WITH_UNIT(PLANE_ANGLE_MEASURE(0.0174532925),#510);
#510=(
NAMED_UNIT(*)
PLANE_ANGLE_UNIT()
SI_UNIT($,.RADIAN.)
);
#511=(
LENGTH_UNIT()
NAMED_UNIT(*)
SI_UNIT(.MILLI.,.METRE.)
);
ENDSEC;
END-ISO-10303-21;
