ISO-10303-21;
HEADER;
/* Generated by software containing ST-Developer
 * from STEP Tools, Inc. (www.steptools.com) 
 */
/* OPTION: using custom schema-name function */

FILE_DESCRIPTION(
/* description */ (''),
/* implementation_level */ '2;1');

FILE_NAME(
/* name */ 'XE16.750J4-7.50-01.0E_Basic.stp',
/* time_stamp */ '2022-08-02T14:32:35+05:00',
/* author */ (''),
/* organization */ (''),
/* preprocessor_version */ 'ST-DEVELOPER v16.7',
/* originating_system */ 'SIEMENS PLM Software NX 12.0',
/* authorisation */ '');

FILE_SCHEMA (('AUTOMOTIVE_DESIGN { 1 0 10303 214 3 1 1 1 }'));
ENDSEC;

DATA;
#10=CONSTRUCTIVE_GEOMETRY_REPRESENTATION_RELATIONSHIP(
'supplemental geometry','',#32,#11);
#11=CONSTRUCTIVE_GEOMETRY_REPRESENTATION('supplemental geometry',(#272,
#273,#274),#464);
#12=PROPERTY_DEFINITION_REPRESENTATION(#16,#14);
#13=PROPERTY_DEFINITION_REPRESENTATION(#17,#15);
#14=REPRESENTATION('',(#18),#464);
#15=REPRESENTATION('',(#19),#464);
#16=PROPERTY_DEFINITION('pmi validation property','',#23);
#17=PROPERTY_DEFINITION('pmi validation property','',#23);
#18=VALUE_REPRESENTATION_ITEM('number of annotations',COUNT_MEASURE(0.));
#19=VALUE_REPRESENTATION_ITEM('number of views',COUNT_MEASURE(0.));
#20=SHAPE_REPRESENTATION_RELATIONSHIP('None',
'relationship between inco283C32F3z33o-None and inco283C32F3z33o-None',
#32,#21);
#21=ADVANCED_BREP_SHAPE_REPRESENTATION('inco283C32F3z33o-None',(#38),#464);
#22=SHAPE_DEFINITION_REPRESENTATION(#23,#32);
#23=PRODUCT_DEFINITION_SHAPE('','',#24);
#24=PRODUCT_DEFINITION(' ','',#26,#25);
#25=PRODUCT_DEFINITION_CONTEXT('part definition',#31,'design');
#26=PRODUCT_DEFINITION_FORMATION_WITH_SPECIFIED_SOURCE(' ',' ',#28,
 .NOT_KNOWN.);
#27=PRODUCT_RELATED_PRODUCT_CATEGORY('part','',(#28));
#28=PRODUCT('inco283C32F3z33o','inco283C32F3z33o',' ',(#29));
#29=PRODUCT_CONTEXT(' ',#31,'mechanical');
#30=APPLICATION_PROTOCOL_DEFINITION('international standard',
'automotive_design',2010,#31);
#31=APPLICATION_CONTEXT(
'core data for automotive mechanical design processes');
#32=SHAPE_REPRESENTATION('inco283C32F3z33o-None',(#271),#464);
#33=SURFACE_STYLE_USAGE(.BOTH.,#34);
#34=SURFACE_SIDE_STYLE('',(#35));
#35=SURFACE_STYLE_FILL_AREA(#36);
#36=FILL_AREA_STYLE('',(#37));
#37=FILL_AREA_STYLE_COLOUR('',#267);
#38=MANIFOLD_SOLID_BREP('NOCUT',#39);
#39=CLOSED_SHELL('',(#59,#60,#61,#62,#63,#64,#65,#66,#67,#68,#69,#70,#71,
#72,#73,#74,#75,#76,#77,#78));
#40=VERTEX_LOOP('',#204);
#41=FACE_OUTER_BOUND('',#132,.T.);
#42=PLANE('',#287);
#43=PLANE('',#289);
#44=CONICAL_SURFACE('',#281,9.05727984388131,15.0183633988158);
#45=CONICAL_SURFACE('',#285,7.7,0.999999999999985);
#46=CONICAL_SURFACE('',#290,8.52175,45.);
#47=CONICAL_SURFACE('',#292,3.525,59.);
#48=CONICAL_SURFACE('',#302,4.68,5.99999999999999);
#49=CONICAL_SURFACE('',#304,5.2203190359301,69.7308316113804);
#50=CONICAL_SURFACE('',#312,5.69904753830495,1.99999999999998);
#51=CONICAL_SURFACE('',#313,6.34246876431976,47.);
#52=TOROIDAL_SURFACE('',#279,8.72174999999999,0.800000000000036);
#53=TOROIDAL_SURFACE('',#283,9.82995410365527,0.799999999999974);
#54=TOROIDAL_SURFACE('',#296,3.725,0.2);
#55=TOROIDAL_SURFACE('',#298,3.49542994468815,1.);
#56=TOROIDAL_SURFACE('',#300,4.41485840804242,0.6);
#57=TOROIDAL_SURFACE('',#306,4.94317430711815,0.8);
#58=TOROIDAL_SURFACE('',#310,5.24317430711815,0.5);
#59=ADVANCED_FACE('FP_EH_SU1',(#82,#83),#79,.T.);
#60=ADVANCED_FACE('',(#84,#85),#52,.T.);
#61=ADVANCED_FACE('FP_EH_SU2',(#86,#87),#44,.T.);
#62=ADVANCED_FACE('',(#88,#89),#53,.F.);
#63=ADVANCED_FACE('FP_EH_SU3',(#90,#91),#45,.T.);
#64=ADVANCED_FACE('FP_EH_SU4',(#92,#93),#42,.T.);
#65=ADVANCED_FACE('',(#41),#43,.F.);
#66=ADVANCED_FACE('',(#94,#95),#46,.T.);
#67=ADVANCED_FACE('',(#96,#97),#47,.F.);
#68=ADVANCED_FACE('DCH3',(#98,#99),#80,.F.);
#69=ADVANCED_FACE('',(#100,#101),#54,.T.);
#70=ADVANCED_FACE('',(#102,#103),#55,.F.);
#71=ADVANCED_FACE('',(#104,#105),#56,.T.);
#72=ADVANCED_FACE('TSALN',(#106,#107),#48,.F.);
#73=ADVANCED_FACE('',(#108,#109),#49,.F.);
#74=ADVANCED_FACE('',(#110,#111),#57,.F.);
#75=ADVANCED_FACE('DCH2',(#112,#113),#81,.F.);
#76=ADVANCED_FACE('',(#114,#115),#58,.F.);
#77=ADVANCED_FACE('TSAN',(#116,#117),#50,.F.);
#78=ADVANCED_FACE('DCH4',(#118,#119),#51,.F.);
#79=CYLINDRICAL_SURFACE('',#277,9.52175000000001);
#80=CYLINDRICAL_SURFACE('',#294,3.525);
#81=CYLINDRICAL_SURFACE('',#308,5.74317430711815);
#82=FACE_BOUND('',#120,.T.);
#83=FACE_BOUND('',#121,.T.);
#84=FACE_BOUND('',#122,.T.);
#85=FACE_BOUND('',#123,.T.);
#86=FACE_BOUND('',#124,.T.);
#87=FACE_BOUND('',#125,.T.);
#88=FACE_BOUND('',#126,.T.);
#89=FACE_BOUND('',#127,.T.);
#90=FACE_BOUND('',#128,.T.);
#91=FACE_BOUND('',#129,.T.);
#92=FACE_BOUND('',#130,.T.);
#93=FACE_BOUND('',#131,.T.);
#94=FACE_BOUND('',#133,.T.);
#95=FACE_BOUND('',#134,.T.);
#96=FACE_BOUND('',#40,.T.);
#97=FACE_BOUND('',#135,.T.);
#98=FACE_BOUND('',#136,.T.);
#99=FACE_BOUND('',#137,.T.);
#100=FACE_BOUND('',#138,.T.);
#101=FACE_BOUND('',#139,.T.);
#102=FACE_BOUND('',#140,.T.);
#103=FACE_BOUND('',#141,.T.);
#104=FACE_BOUND('',#142,.T.);
#105=FACE_BOUND('',#143,.T.);
#106=FACE_BOUND('',#144,.T.);
#107=FACE_BOUND('',#145,.T.);
#108=FACE_BOUND('',#146,.T.);
#109=FACE_BOUND('',#147,.T.);
#110=FACE_BOUND('',#148,.T.);
#111=FACE_BOUND('',#149,.T.);
#112=FACE_BOUND('',#150,.T.);
#113=FACE_BOUND('',#151,.T.);
#114=FACE_BOUND('',#152,.T.);
#115=FACE_BOUND('',#153,.T.);
#116=FACE_BOUND('',#154,.T.);
#117=FACE_BOUND('',#155,.T.);
#118=FACE_BOUND('',#156,.T.);
#119=FACE_BOUND('',#157,.T.);
#120=EDGE_LOOP('',(#158));
#121=EDGE_LOOP('',(#159));
#122=EDGE_LOOP('',(#160));
#123=EDGE_LOOP('',(#161));
#124=EDGE_LOOP('',(#162));
#125=EDGE_LOOP('',(#163));
#126=EDGE_LOOP('',(#164));
#127=EDGE_LOOP('',(#165));
#128=EDGE_LOOP('',(#166));
#129=EDGE_LOOP('',(#167));
#130=EDGE_LOOP('',(#168));
#131=EDGE_LOOP('',(#169));
#132=EDGE_LOOP('',(#170));
#133=EDGE_LOOP('',(#171));
#134=EDGE_LOOP('',(#172));
#135=EDGE_LOOP('',(#173));
#136=EDGE_LOOP('',(#174));
#137=EDGE_LOOP('',(#175));
#138=EDGE_LOOP('',(#176));
#139=EDGE_LOOP('',(#177));
#140=EDGE_LOOP('',(#178));
#141=EDGE_LOOP('',(#179));
#142=EDGE_LOOP('',(#180));
#143=EDGE_LOOP('',(#181));
#144=EDGE_LOOP('',(#182));
#145=EDGE_LOOP('',(#183));
#146=EDGE_LOOP('',(#184));
#147=EDGE_LOOP('',(#185));
#148=EDGE_LOOP('',(#186));
#149=EDGE_LOOP('',(#187));
#150=EDGE_LOOP('',(#188));
#151=EDGE_LOOP('',(#189));
#152=EDGE_LOOP('',(#190));
#153=EDGE_LOOP('',(#191));
#154=EDGE_LOOP('',(#192));
#155=EDGE_LOOP('',(#193));
#156=EDGE_LOOP('',(#194));
#157=EDGE_LOOP('',(#195));
#158=ORIENTED_EDGE('',*,*,#216,.F.);
#159=ORIENTED_EDGE('',*,*,#217,.T.);
#160=ORIENTED_EDGE('',*,*,#216,.T.);
#161=ORIENTED_EDGE('',*,*,#218,.F.);
#162=ORIENTED_EDGE('',*,*,#218,.T.);
#163=ORIENTED_EDGE('',*,*,#219,.F.);
#164=ORIENTED_EDGE('',*,*,#219,.T.);
#165=ORIENTED_EDGE('',*,*,#220,.F.);
#166=ORIENTED_EDGE('',*,*,#220,.T.);
#167=ORIENTED_EDGE('',*,*,#221,.F.);
#168=ORIENTED_EDGE('',*,*,#222,.F.);
#169=ORIENTED_EDGE('',*,*,#221,.T.);
#170=ORIENTED_EDGE('',*,*,#223,.F.);
#171=ORIENTED_EDGE('',*,*,#217,.F.);
#172=ORIENTED_EDGE('',*,*,#223,.T.);
#173=ORIENTED_EDGE('',*,*,#224,.T.);
#174=ORIENTED_EDGE('',*,*,#224,.F.);
#175=ORIENTED_EDGE('',*,*,#225,.T.);
#176=ORIENTED_EDGE('',*,*,#225,.F.);
#177=ORIENTED_EDGE('',*,*,#226,.T.);
#178=ORIENTED_EDGE('',*,*,#226,.F.);
#179=ORIENTED_EDGE('',*,*,#227,.T.);
#180=ORIENTED_EDGE('',*,*,#227,.F.);
#181=ORIENTED_EDGE('',*,*,#228,.T.);
#182=ORIENTED_EDGE('',*,*,#228,.F.);
#183=ORIENTED_EDGE('',*,*,#229,.T.);
#184=ORIENTED_EDGE('',*,*,#229,.F.);
#185=ORIENTED_EDGE('',*,*,#230,.T.);
#186=ORIENTED_EDGE('',*,*,#230,.F.);
#187=ORIENTED_EDGE('',*,*,#231,.T.);
#188=ORIENTED_EDGE('',*,*,#231,.F.);
#189=ORIENTED_EDGE('',*,*,#232,.T.);
#190=ORIENTED_EDGE('',*,*,#232,.F.);
#191=ORIENTED_EDGE('',*,*,#233,.T.);
#192=ORIENTED_EDGE('',*,*,#233,.F.);
#193=ORIENTED_EDGE('',*,*,#234,.T.);
#194=ORIENTED_EDGE('',*,*,#234,.F.);
#195=ORIENTED_EDGE('',*,*,#222,.T.);
#196=VERTEX_POINT('',#405);
#197=VERTEX_POINT('',#407);
#198=VERTEX_POINT('',#410);
#199=VERTEX_POINT('',#413);
#200=VERTEX_POINT('',#416);
#201=VERTEX_POINT('',#419);
#202=VERTEX_POINT('',#422);
#203=VERTEX_POINT('',#425);
#204=VERTEX_POINT('',#428);
#205=VERTEX_POINT('',#430);
#206=VERTEX_POINT('',#433);
#207=VERTEX_POINT('',#436);
#208=VERTEX_POINT('',#439);
#209=VERTEX_POINT('',#442);
#210=VERTEX_POINT('',#445);
#211=VERTEX_POINT('',#448);
#212=VERTEX_POINT('',#451);
#213=VERTEX_POINT('',#454);
#214=VERTEX_POINT('',#457);
#215=VERTEX_POINT('',#460);
#216=EDGE_CURVE('',#196,#196,#235,.T.);
#217=EDGE_CURVE('',#197,#197,#236,.T.);
#218=EDGE_CURVE('',#198,#198,#237,.T.);
#219=EDGE_CURVE('',#199,#199,#238,.T.);
#220=EDGE_CURVE('',#200,#200,#239,.T.);
#221=EDGE_CURVE('',#201,#201,#240,.T.);
#222=EDGE_CURVE('',#202,#202,#241,.T.);
#223=EDGE_CURVE('',#203,#203,#242,.T.);
#224=EDGE_CURVE('',#205,#205,#243,.T.);
#225=EDGE_CURVE('',#206,#206,#244,.T.);
#226=EDGE_CURVE('',#207,#207,#245,.T.);
#227=EDGE_CURVE('',#208,#208,#246,.T.);
#228=EDGE_CURVE('',#209,#209,#247,.T.);
#229=EDGE_CURVE('',#210,#210,#248,.T.);
#230=EDGE_CURVE('',#211,#211,#249,.T.);
#231=EDGE_CURVE('',#212,#212,#250,.T.);
#232=EDGE_CURVE('',#213,#213,#251,.T.);
#233=EDGE_CURVE('',#214,#214,#252,.T.);
#234=EDGE_CURVE('',#215,#215,#253,.T.);
#235=CIRCLE('',#275,9.52175000000003);
#236=CIRCLE('',#276,9.52175);
#237=CIRCLE('',#278,9.49442425977402);
#238=CIRCLE('',#280,9.05727984388131);
#239=CIRCLE('',#282,9.03007594753016);
#240=CIRCLE('',#284,7.7);
#241=CIRCLE('',#286,6.34246876431976);
#242=CIRCLE('',#288,8.52175);
#243=CIRCLE('',#291,3.525);
#244=CIRCLE('',#293,3.525);
#245=CIRCLE('',#295,3.68673832411469);
#246=CIRCLE('',#297,4.07007273428457);
#247=CIRCLE('',#299,3.81814527082145);
#248=CIRCLE('',#301,4.68);
#249=CIRCLE('',#303,5.2203190359301);
#250=CIRCLE('',#305,5.74317430711815);
#251=CIRCLE('',#307,5.74317430711815);
#252=CIRCLE('',#309,5.64317430711816);
#253=CIRCLE('',#311,5.69904753830495);
#254=PRESENTATION_LAYER_ASSIGNMENT('1','Layer 1',(#272,#273,#274,#38));
#255=STYLED_ITEM('',(#259),#272);
#256=STYLED_ITEM('',(#260),#273);
#257=STYLED_ITEM('',(#261),#274);
#258=STYLED_ITEM('',(#262),#38);
#259=PRESENTATION_STYLE_ASSIGNMENT((#263));
#260=PRESENTATION_STYLE_ASSIGNMENT((#264));
#261=PRESENTATION_STYLE_ASSIGNMENT((#265));
#262=PRESENTATION_STYLE_ASSIGNMENT((#33));
#263=CURVE_STYLE('',#268,POSITIVE_LENGTH_MEASURE(0.18),#266);
#264=CURVE_STYLE('',#269,POSITIVE_LENGTH_MEASURE(0.18),#266);
#265=CURVE_STYLE('',#270,POSITIVE_LENGTH_MEASURE(0.18),#266);
#266=COLOUR_RGB('Strong Stone',0.576470588235294,0.54508278019379,0.392156862745098);
#267=COLOUR_RGB('Medium Gray',0.490196078431373,0.490196078431373,0.490196078431373);
#268=DRAUGHTING_PRE_DEFINED_CURVE_FONT('continuous');
#269=DRAUGHTING_PRE_DEFINED_CURVE_FONT('continuous');
#270=DRAUGHTING_PRE_DEFINED_CURVE_FONT('continuous');
#271=AXIS2_PLACEMENT_3D('',#400,#314,#315);
#272=AXIS2_PLACEMENT_3D('PCS',#401,#316,#317);
#273=AXIS2_PLACEMENT_3D('MCS',#402,#318,#319);
#274=AXIS2_PLACEMENT_3D('CSW',#403,#320,#321);
#275=AXIS2_PLACEMENT_3D('',#404,#322,#323);
#276=AXIS2_PLACEMENT_3D('',#406,#324,#325);
#277=AXIS2_PLACEMENT_3D('',#408,#326,#327);
#278=AXIS2_PLACEMENT_3D('',#409,#328,#329);
#279=AXIS2_PLACEMENT_3D('',#411,#330,#331);
#280=AXIS2_PLACEMENT_3D('',#412,#332,#333);
#281=AXIS2_PLACEMENT_3D('',#414,#334,#335);
#282=AXIS2_PLACEMENT_3D('',#415,#336,#337);
#283=AXIS2_PLACEMENT_3D('',#417,#338,#339);
#284=AXIS2_PLACEMENT_3D('',#418,#340,#341);
#285=AXIS2_PLACEMENT_3D('',#420,#342,#343);
#286=AXIS2_PLACEMENT_3D('',#421,#344,#345);
#287=AXIS2_PLACEMENT_3D('',#423,#346,#347);
#288=AXIS2_PLACEMENT_3D('',#424,#348,#349);
#289=AXIS2_PLACEMENT_3D('',#426,#350,#351);
#290=AXIS2_PLACEMENT_3D('',#427,#352,#353);
#291=AXIS2_PLACEMENT_3D('',#429,#354,#355);
#292=AXIS2_PLACEMENT_3D('',#431,#356,#357);
#293=AXIS2_PLACEMENT_3D('',#432,#358,#359);
#294=AXIS2_PLACEMENT_3D('',#434,#360,#361);
#295=AXIS2_PLACEMENT_3D('',#435,#362,#363);
#296=AXIS2_PLACEMENT_3D('',#437,#364,#365);
#297=AXIS2_PLACEMENT_3D('',#438,#366,#367);
#298=AXIS2_PLACEMENT_3D('',#440,#368,#369);
#299=AXIS2_PLACEMENT_3D('',#441,#370,#371);
#300=AXIS2_PLACEMENT_3D('',#443,#372,#373);
#301=AXIS2_PLACEMENT_3D('',#444,#374,#375);
#302=AXIS2_PLACEMENT_3D('',#446,#376,#377);
#303=AXIS2_PLACEMENT_3D('',#447,#378,#379);
#304=AXIS2_PLACEMENT_3D('',#449,#380,#381);
#305=AXIS2_PLACEMENT_3D('',#450,#382,#383);
#306=AXIS2_PLACEMENT_3D('',#452,#384,#385);
#307=AXIS2_PLACEMENT_3D('',#453,#386,#387);
#308=AXIS2_PLACEMENT_3D('',#455,#388,#389);
#309=AXIS2_PLACEMENT_3D('',#456,#390,#391);
#310=AXIS2_PLACEMENT_3D('',#458,#392,#393);
#311=AXIS2_PLACEMENT_3D('',#459,#394,#395);
#312=AXIS2_PLACEMENT_3D('',#461,#396,#397);
#313=AXIS2_PLACEMENT_3D('',#462,#398,#399);
#314=DIRECTION('',(0.,0.,1.));
#315=DIRECTION('',(1.,0.,0.));
#316=DIRECTION('',(0.,0.,1.));
#317=DIRECTION('',(1.,0.,0.));
#318=DIRECTION('',(0.,0.,1.));
#319=DIRECTION('',(1.,0.,0.));
#320=DIRECTION('',(0.,0.,1.));
#321=DIRECTION('',(1.,0.,0.));
#322=DIRECTION('',(0.,0.,-1.));
#323=DIRECTION('',(1.,0.,0.));
#324=DIRECTION('',(0.,0.,-1.));
#325=DIRECTION('',(1.,0.,0.));
#326=DIRECTION('',(0.,0.,-1.));
#327=DIRECTION('',(1.,0.,0.));
#328=DIRECTION('',(0.,0.,-1.));
#329=DIRECTION('',(1.,0.,0.));
#330=DIRECTION('',(0.,0.,-1.));
#331=DIRECTION('',(1.,0.,0.));
#332=DIRECTION('',(0.,0.,-1.));
#333=DIRECTION('',(1.,0.,0.));
#334=DIRECTION('',(0.,0.,1.));
#335=DIRECTION('',(-1.,0.,5.00370906062525E-17));
#336=DIRECTION('',(0.,0.,-1.));
#337=DIRECTION('',(1.,0.,0.));
#338=DIRECTION('',(0.,0.,-1.));
#339=DIRECTION('',(1.,0.,0.));
#340=DIRECTION('',(0.,0.,-1.));
#341=DIRECTION('',(1.,0.,0.));
#342=DIRECTION('',(0.,0.,1.));
#343=DIRECTION('',(-1.,0.,0.));
#344=DIRECTION('',(0.,0.,-1.));
#345=DIRECTION('',(1.,0.,0.));
#346=DIRECTION('',(0.,0.,-1.));
#347=DIRECTION('',(1.,0.,0.));
#348=DIRECTION('',(0.,0.,-1.));
#349=DIRECTION('',(1.,0.,0.));
#350=DIRECTION('',(0.,0.,-1.));
#351=DIRECTION('',(1.,0.,0.));
#352=DIRECTION('',(0.,0.,-1.));
#353=DIRECTION('',(1.,0.,0.));
#354=DIRECTION('',(0.,0.,-1.));
#355=DIRECTION('',(1.,0.,0.));
#356=DIRECTION('',(0.,0.,-1.));
#357=DIRECTION('',(1.,0.,4.99259521892728E-17));
#358=DIRECTION('',(0.,0.,-1.));
#359=DIRECTION('',(1.,0.,0.));
#360=DIRECTION('',(0.,0.,-1.));
#361=DIRECTION('',(1.,0.,0.));
#362=DIRECTION('',(0.,0.,-1.));
#363=DIRECTION('',(1.,0.,0.));
#364=DIRECTION('',(0.,0.,-1.));
#365=DIRECTION('',(1.,0.,0.));
#366=DIRECTION('',(0.,0.,-1.));
#367=DIRECTION('',(1.,0.,0.));
#368=DIRECTION('',(0.,0.,-1.));
#369=DIRECTION('',(1.,0.,0.));
#370=DIRECTION('',(0.,0.,-1.));
#371=DIRECTION('',(1.,0.,0.));
#372=DIRECTION('',(0.,0.,-1.));
#373=DIRECTION('',(1.,0.,0.));
#374=DIRECTION('',(0.,0.,-1.));
#375=DIRECTION('',(1.,0.,0.));
#376=DIRECTION('',(0.,0.,-1.));
#377=DIRECTION('',(1.,0.,5.05638638342943E-16));
#378=DIRECTION('',(0.,0.,-1.));
#379=DIRECTION('',(1.,0.,0.));
#380=DIRECTION('',(0.,0.,-1.));
#381=DIRECTION('',(1.,0.,3.06912012337022E-17));
#382=DIRECTION('',(0.,0.,-1.));
#383=DIRECTION('',(1.,0.,0.));
#384=DIRECTION('',(0.,0.,-1.));
#385=DIRECTION('',(1.,0.,0.));
#386=DIRECTION('',(0.,0.,-1.));
#387=DIRECTION('',(1.,0.,0.));
#388=DIRECTION('',(0.,0.,-1.));
#389=DIRECTION('',(1.,0.,0.));
#390=DIRECTION('',(0.,0.,-1.));
#391=DIRECTION('',(1.,0.,0.));
#392=DIRECTION('',(0.,0.,-1.));
#393=DIRECTION('',(1.,0.,0.));
#394=DIRECTION('',(0.,0.,-1.));
#395=DIRECTION('',(1.,0.,0.));
#396=DIRECTION('',(0.,0.,-1.));
#397=DIRECTION('',(1.,0.,1.36660269026294E-15));
#398=DIRECTION('',(0.,0.,-1.));
#399=DIRECTION('',(1.,0.,-1.02921249585225E-16));
#400=CARTESIAN_POINT('',(0.,0.,0.));
#401=CARTESIAN_POINT('',(0.,0.,0.));
#402=CARTESIAN_POINT('',(0.,0.,-48.));
#403=CARTESIAN_POINT('',(0.,0.,-190.5));
#404=CARTESIAN_POINT('',(0.,0.,-112.27));
#405=CARTESIAN_POINT('',(9.52175000000003,0.,-112.27));
#406=CARTESIAN_POINT('',(0.,0.,-1.));
#407=CARTESIAN_POINT('',(9.52175,0.,-1.));
#408=CARTESIAN_POINT('',(0.,0.,70.5183697733042));
#409=CARTESIAN_POINT('',(0.,0.,-112.477302890194));
#410=CARTESIAN_POINT('',(9.49442425977402,0.,-112.477302890194));
#411=CARTESIAN_POINT('',(0.,0.,-112.27));
#412=CARTESIAN_POINT('',(0.,0.,-114.106659034956));
#413=CARTESIAN_POINT('',(9.05727984388131,0.,-114.106659034956));
#414=CARTESIAN_POINT('',(0.,0.,-114.106659034956));
#415=CARTESIAN_POINT('',(0.,0.,-114.3));
#416=CARTESIAN_POINT('',(9.03007594753016,0.,-114.3));
#417=CARTESIAN_POINT('',(0.,0.,-114.31396192515));
#418=CARTESIAN_POINT('',(0.,0.,-190.5));
#419=CARTESIAN_POINT('',(7.7,0.,-190.5));
#420=CARTESIAN_POINT('',(0.,0.,-190.5));
#421=CARTESIAN_POINT('',(0.,0.,-190.5));
#422=CARTESIAN_POINT('',(6.34246876431976,0.,-190.5));
#423=CARTESIAN_POINT('',(2.48689957516035E-14,0.,-190.5));
#424=CARTESIAN_POINT('',(0.,0.,0.));
#425=CARTESIAN_POINT('',(8.52175,0.,0.));
#426=CARTESIAN_POINT('',(0.,0.,0.));
#427=CARTESIAN_POINT('',(0.,0.,0.));
#428=CARTESIAN_POINT('',(0.,0.,-169.881966317928));
#429=CARTESIAN_POINT('',(0.,0.,-172.));
#430=CARTESIAN_POINT('',(3.525,0.,-172.));
#431=CARTESIAN_POINT('',(0.,0.,-172.));
#432=CARTESIAN_POINT('',(0.,0.,-175.35));
#433=CARTESIAN_POINT('',(3.525,0.,-175.35));
#434=CARTESIAN_POINT('',(0.,0.,-190.5));
#435=CARTESIAN_POINT('',(0.,0.,-175.546305996237));
#436=CARTESIAN_POINT('',(3.68673832411469,0.,-175.546305996237));
#437=CARTESIAN_POINT('',(0.,0.,-175.35));
#438=CARTESIAN_POINT('',(0.,0.,-177.346240317807));
#439=CARTESIAN_POINT('',(4.07007273428457,0.,-177.346240317807));
#440=CARTESIAN_POINT('',(0.,0.,-176.52783597742));
#441=CARTESIAN_POINT('',(0.,0.,-177.9));
#442=CARTESIAN_POINT('',(3.81814527082145,0.,-177.9));
#443=CARTESIAN_POINT('',(0.,0.,-177.837282922039));
#444=CARTESIAN_POINT('',(0.,0.,-186.1));
#445=CARTESIAN_POINT('',(4.68,0.,-186.1));
#446=CARTESIAN_POINT('',(0.,0.,-186.1));
#447=CARTESIAN_POINT('',(0.,0.,-186.299539608446));
#448=CARTESIAN_POINT('',(5.2203190359301,0.,-186.299539608446));
#449=CARTESIAN_POINT('',(0.,0.,-186.299539608446));
#450=CARTESIAN_POINT('',(0.,0.,-187.05));
#451=CARTESIAN_POINT('',(5.74317430711815,0.,-187.05));
#452=CARTESIAN_POINT('',(0.,0.,-187.05));
#453=CARTESIAN_POINT('',(0.,0.,-188.));
#454=CARTESIAN_POINT('',(5.74317430711815,0.,-188.));
#455=CARTESIAN_POINT('',(0.,0.,-190.5));
#456=CARTESIAN_POINT('',(0.,0.,-188.3));
#457=CARTESIAN_POINT('',(5.64317430711816,0.,-188.3));
#458=CARTESIAN_POINT('',(0.,0.,-188.));
#459=CARTESIAN_POINT('',(0.,0.,-189.9));
#460=CARTESIAN_POINT('',(5.69904753830495,0.,-189.9));
#461=CARTESIAN_POINT('',(0.,0.,-189.9));
#462=CARTESIAN_POINT('',(0.,0.,-190.5));
#463=MECHANICAL_DESIGN_GEOMETRIC_PRESENTATION_REPRESENTATION('',(#255,#256,
#257,#258),#464);
#464=(
GEOMETRIC_REPRESENTATION_CONTEXT(3)
GLOBAL_UNCERTAINTY_ASSIGNED_CONTEXT((#465))
GLOBAL_UNIT_ASSIGNED_CONTEXT((#471,#467,#466))
REPRESENTATION_CONTEXT('XE16.750J4-7.50-01','TOP_LEVEL_ASSEMBLY_PART')
);
#465=UNCERTAINTY_MEASURE_WITH_UNIT(LENGTH_MEASURE(2.E-5),#471,
'DISTANCE_ACCURACY_VALUE','Maximum Tolerance applied to model');
#466=(
NAMED_UNIT(*)
SI_UNIT($,.STERADIAN.)
SOLID_ANGLE_UNIT()
);
#467=(
CONVERSION_BASED_UNIT('DEGREE',#469)
NAMED_UNIT(#468)
PLANE_ANGLE_UNIT()
);
#468=DIMENSIONAL_EXPONENTS(0.,0.,0.,0.,0.,0.,0.);
#469=PLANE_ANGLE_MEASURE_WITH_UNIT(PLANE_ANGLE_MEASURE(0.0174532925),#470);
#470=(
NAMED_UNIT(*)
PLANE_ANGLE_UNIT()
SI_UNIT($,.RADIAN.)
);
#471=(
LENGTH_UNIT()
NAMED_UNIT(*)
SI_UNIT(.MILLI.,.METRE.)
);
ENDSEC;
END-ISO-10303-21;
