ISO-10303-21;
HEADER;
/* Generated by software containing ST-Developer
 * from STEP Tools, Inc. (www.steptools.com) 
 */
/* OPTION: using custom schema-name function */

FILE_DESCRIPTION(
/* description */ (''),
/* implementation_level */ '2;1');

FILE_NAME(
/* name */ 'XE10.625J5-6.50-01.0E_Basic.stp',
/* time_stamp */ '2022-08-02T14:17:16+06:00',
/* author */ (''),
/* organization */ (''),
/* preprocessor_version */ 'ST-DEVELOPER v16.7',
/* originating_system */ 'SIEMENS PLM Software NX 12.0',
/* authorisation */ '');

FILE_SCHEMA (('AUTOMOTIVE_DESIGN { 1 0 10303 214 3 1 1 1 }'));
ENDSEC;

DATA;
#10=CONSTRUCTIVE_GEOMETRY_REPRESENTATION_RELATIONSHIP(
'supplemental geometry','',#32,#11);
#11=CONSTRUCTIVE_GEOMETRY_REPRESENTATION('supplemental geometry',(#283,
#284,#285),#484);
#12=PROPERTY_DEFINITION_REPRESENTATION(#16,#14);
#13=PROPERTY_DEFINITION_REPRESENTATION(#17,#15);
#14=REPRESENTATION('',(#18),#484);
#15=REPRESENTATION('',(#19),#484);
#16=PROPERTY_DEFINITION('pmi validation property','',#23);
#17=PROPERTY_DEFINITION('pmi validation property','',#23);
#18=VALUE_REPRESENTATION_ITEM('number of annotations',COUNT_MEASURE(0.));
#19=VALUE_REPRESENTATION_ITEM('number of views',COUNT_MEASURE(0.));
#20=SHAPE_REPRESENTATION_RELATIONSHIP('None',
'relationship between inco283C32F3z31r-None and inco283C32F3z31r-None',
#32,#21);
#21=ADVANCED_BREP_SHAPE_REPRESENTATION('inco283C32F3z31r-None',(#38),#484);
#22=SHAPE_DEFINITION_REPRESENTATION(#23,#32);
#23=PRODUCT_DEFINITION_SHAPE('','',#24);
#24=PRODUCT_DEFINITION(' ','',#26,#25);
#25=PRODUCT_DEFINITION_CONTEXT('part definition',#31,'design');
#26=PRODUCT_DEFINITION_FORMATION_WITH_SPECIFIED_SOURCE(' ',' ',#28,
 .NOT_KNOWN.);
#27=PRODUCT_RELATED_PRODUCT_CATEGORY('part','',(#28));
#28=PRODUCT('inco283C32F3z31r','inco283C32F3z31r',' ',(#29));
#29=PRODUCT_CONTEXT(' ',#31,'mechanical');
#30=APPLICATION_PROTOCOL_DEFINITION('international standard',
'automotive_design',2010,#31);
#31=APPLICATION_CONTEXT(
'core data for automotive mechanical design processes');
#32=SHAPE_REPRESENTATION('inco283C32F3z31r-None',(#282),#484);
#33=SURFACE_STYLE_USAGE(.BOTH.,#34);
#34=SURFACE_SIDE_STYLE('',(#35));
#35=SURFACE_STYLE_FILL_AREA(#36);
#36=FILL_AREA_STYLE('',(#37));
#37=FILL_AREA_STYLE_COLOUR('',#278);
#38=MANIFOLD_SOLID_BREP('NOCUT',#39);
#39=CLOSED_SHELL('',(#60,#61,#62,#63,#64,#65,#66,#67,#68,#69,#70,#71,#72,
#73,#74,#75,#76,#77,#78,#79,#80));
#40=VERTEX_LOOP('',#213);
#41=FACE_OUTER_BOUND('',#136,.T.);
#42=PLANE('',#298);
#43=PLANE('',#300);
#44=CONICAL_SURFACE('',#292,5.97717786590914,69.1745609363158);
#45=CONICAL_SURFACE('',#296,4.575,0.999999999999986);
#46=CONICAL_SURFACE('',#301,6.93475,45.);
#47=CONICAL_SURFACE('',#303,4.44089209850063E-16,59.0000000000001);
#48=CONICAL_SURFACE('',#309,2.3732361909795,74.9999999999912);
#49=CONICAL_SURFACE('',#313,2.72160459229349,49.9999999999992);
#50=CONICAL_SURFACE('',#315,2.59027234429821,5.99999999999999);
#51=CONICAL_SURFACE('',#317,3.13,74.9999999999999);
#52=CONICAL_SURFACE('',#325,3.54813469186403,2.00000000000002);
#53=CONICAL_SURFACE('',#326,3.59003961525413,45.);
#54=TOROIDAL_SURFACE('',#290,7.13475,0.800000000000025);
#55=TOROIDAL_SURFACE('',#294,6.26159545447856,0.79999999999998);
#56=TOROIDAL_SURFACE('',#307,2.425,0.2);
#57=TOROIDAL_SURFACE('',#311,2.20737450454426,0.799999999999997);
#58=TOROIDAL_SURFACE('',#319,3.44813469186403,0.2);
#59=TOROIDAL_SURFACE('',#323,3.44813469186403,0.2);
#60=ADVANCED_FACE('FP_EH_SU1',(#84,#85),#81,.T.);
#61=ADVANCED_FACE('',(#86,#87),#54,.T.);
#62=ADVANCED_FACE('FP_EH_SU2',(#88,#89),#44,.T.);
#63=ADVANCED_FACE('',(#90,#91),#55,.F.);
#64=ADVANCED_FACE('FP_EH_SU3',(#92,#93),#45,.T.);
#65=ADVANCED_FACE('FP_EH_SU4',(#94,#95),#42,.T.);
#66=ADVANCED_FACE('',(#41),#43,.F.);
#67=ADVANCED_FACE('',(#96,#97),#46,.T.);
#68=ADVANCED_FACE('',(#98,#99),#47,.F.);
#69=ADVANCED_FACE('DCH3',(#100,#101),#82,.F.);
#70=ADVANCED_FACE('',(#102,#103),#56,.T.);
#71=ADVANCED_FACE('',(#104,#105),#48,.F.);
#72=ADVANCED_FACE('',(#106,#107),#57,.F.);
#73=ADVANCED_FACE('',(#108,#109),#49,.F.);
#74=ADVANCED_FACE('TSALN',(#110,#111),#50,.F.);
#75=ADVANCED_FACE('',(#112,#113),#51,.F.);
#76=ADVANCED_FACE('',(#114,#115),#58,.F.);
#77=ADVANCED_FACE('DCH2',(#116,#117),#83,.F.);
#78=ADVANCED_FACE('',(#118,#119),#59,.F.);
#79=ADVANCED_FACE('TSAN',(#120,#121),#52,.F.);
#80=ADVANCED_FACE('DCH4',(#122,#123),#53,.F.);
#81=CYLINDRICAL_SURFACE('',#288,7.93475);
#82=CYLINDRICAL_SURFACE('',#305,2.225);
#83=CYLINDRICAL_SURFACE('',#321,3.64813469186403);
#84=FACE_BOUND('',#124,.T.);
#85=FACE_BOUND('',#125,.T.);
#86=FACE_BOUND('',#126,.T.);
#87=FACE_BOUND('',#127,.T.);
#88=FACE_BOUND('',#128,.T.);
#89=FACE_BOUND('',#129,.T.);
#90=FACE_BOUND('',#130,.T.);
#91=FACE_BOUND('',#131,.T.);
#92=FACE_BOUND('',#132,.T.);
#93=FACE_BOUND('',#133,.T.);
#94=FACE_BOUND('',#134,.T.);
#95=FACE_BOUND('',#135,.T.);
#96=FACE_BOUND('',#137,.T.);
#97=FACE_BOUND('',#138,.T.);
#98=FACE_BOUND('',#139,.T.);
#99=FACE_BOUND('',#40,.T.);
#100=FACE_BOUND('',#140,.T.);
#101=FACE_BOUND('',#141,.T.);
#102=FACE_BOUND('',#142,.T.);
#103=FACE_BOUND('',#143,.T.);
#104=FACE_BOUND('',#144,.T.);
#105=FACE_BOUND('',#145,.T.);
#106=FACE_BOUND('',#146,.T.);
#107=FACE_BOUND('',#147,.T.);
#108=FACE_BOUND('',#148,.T.);
#109=FACE_BOUND('',#149,.T.);
#110=FACE_BOUND('',#150,.T.);
#111=FACE_BOUND('',#151,.T.);
#112=FACE_BOUND('',#152,.T.);
#113=FACE_BOUND('',#153,.T.);
#114=FACE_BOUND('',#154,.T.);
#115=FACE_BOUND('',#155,.T.);
#116=FACE_BOUND('',#156,.T.);
#117=FACE_BOUND('',#157,.T.);
#118=FACE_BOUND('',#158,.T.);
#119=FACE_BOUND('',#159,.T.);
#120=FACE_BOUND('',#160,.T.);
#121=FACE_BOUND('',#161,.T.);
#122=FACE_BOUND('',#162,.T.);
#123=FACE_BOUND('',#163,.T.);
#124=EDGE_LOOP('',(#164));
#125=EDGE_LOOP('',(#165));
#126=EDGE_LOOP('',(#166));
#127=EDGE_LOOP('',(#167));
#128=EDGE_LOOP('',(#168));
#129=EDGE_LOOP('',(#169));
#130=EDGE_LOOP('',(#170));
#131=EDGE_LOOP('',(#171));
#132=EDGE_LOOP('',(#172));
#133=EDGE_LOOP('',(#173));
#134=EDGE_LOOP('',(#174));
#135=EDGE_LOOP('',(#175));
#136=EDGE_LOOP('',(#176));
#137=EDGE_LOOP('',(#177));
#138=EDGE_LOOP('',(#178));
#139=EDGE_LOOP('',(#179));
#140=EDGE_LOOP('',(#180));
#141=EDGE_LOOP('',(#181));
#142=EDGE_LOOP('',(#182));
#143=EDGE_LOOP('',(#183));
#144=EDGE_LOOP('',(#184));
#145=EDGE_LOOP('',(#185));
#146=EDGE_LOOP('',(#186));
#147=EDGE_LOOP('',(#187));
#148=EDGE_LOOP('',(#188));
#149=EDGE_LOOP('',(#189));
#150=EDGE_LOOP('',(#190));
#151=EDGE_LOOP('',(#191));
#152=EDGE_LOOP('',(#192));
#153=EDGE_LOOP('',(#193));
#154=EDGE_LOOP('',(#194));
#155=EDGE_LOOP('',(#195));
#156=EDGE_LOOP('',(#196));
#157=EDGE_LOOP('',(#197));
#158=EDGE_LOOP('',(#198));
#159=EDGE_LOOP('',(#199));
#160=EDGE_LOOP('',(#200));
#161=EDGE_LOOP('',(#201));
#162=EDGE_LOOP('',(#202));
#163=EDGE_LOOP('',(#203));
#164=ORIENTED_EDGE('',*,*,#225,.F.);
#165=ORIENTED_EDGE('',*,*,#226,.T.);
#166=ORIENTED_EDGE('',*,*,#225,.T.);
#167=ORIENTED_EDGE('',*,*,#227,.F.);
#168=ORIENTED_EDGE('',*,*,#227,.T.);
#169=ORIENTED_EDGE('',*,*,#228,.F.);
#170=ORIENTED_EDGE('',*,*,#228,.T.);
#171=ORIENTED_EDGE('',*,*,#229,.F.);
#172=ORIENTED_EDGE('',*,*,#229,.T.);
#173=ORIENTED_EDGE('',*,*,#230,.F.);
#174=ORIENTED_EDGE('',*,*,#231,.F.);
#175=ORIENTED_EDGE('',*,*,#230,.T.);
#176=ORIENTED_EDGE('',*,*,#232,.F.);
#177=ORIENTED_EDGE('',*,*,#226,.F.);
#178=ORIENTED_EDGE('',*,*,#232,.T.);
#179=ORIENTED_EDGE('',*,*,#233,.T.);
#180=ORIENTED_EDGE('',*,*,#234,.T.);
#181=ORIENTED_EDGE('',*,*,#233,.F.);
#182=ORIENTED_EDGE('',*,*,#235,.T.);
#183=ORIENTED_EDGE('',*,*,#234,.F.);
#184=ORIENTED_EDGE('',*,*,#236,.T.);
#185=ORIENTED_EDGE('',*,*,#235,.F.);
#186=ORIENTED_EDGE('',*,*,#237,.T.);
#187=ORIENTED_EDGE('',*,*,#236,.F.);
#188=ORIENTED_EDGE('',*,*,#238,.T.);
#189=ORIENTED_EDGE('',*,*,#237,.F.);
#190=ORIENTED_EDGE('',*,*,#239,.T.);
#191=ORIENTED_EDGE('',*,*,#238,.F.);
#192=ORIENTED_EDGE('',*,*,#240,.T.);
#193=ORIENTED_EDGE('',*,*,#239,.F.);
#194=ORIENTED_EDGE('',*,*,#241,.T.);
#195=ORIENTED_EDGE('',*,*,#240,.F.);
#196=ORIENTED_EDGE('',*,*,#242,.T.);
#197=ORIENTED_EDGE('',*,*,#241,.F.);
#198=ORIENTED_EDGE('',*,*,#243,.T.);
#199=ORIENTED_EDGE('',*,*,#242,.F.);
#200=ORIENTED_EDGE('',*,*,#244,.T.);
#201=ORIENTED_EDGE('',*,*,#243,.F.);
#202=ORIENTED_EDGE('',*,*,#231,.T.);
#203=ORIENTED_EDGE('',*,*,#244,.F.);
#204=VERTEX_POINT('',#422);
#205=VERTEX_POINT('',#424);
#206=VERTEX_POINT('',#427);
#207=VERTEX_POINT('',#430);
#208=VERTEX_POINT('',#433);
#209=VERTEX_POINT('',#436);
#210=VERTEX_POINT('',#439);
#211=VERTEX_POINT('',#442);
#212=VERTEX_POINT('',#446);
#213=VERTEX_POINT('',#447);
#214=VERTEX_POINT('',#450);
#215=VERTEX_POINT('',#453);
#216=VERTEX_POINT('',#456);
#217=VERTEX_POINT('',#459);
#218=VERTEX_POINT('',#462);
#219=VERTEX_POINT('',#465);
#220=VERTEX_POINT('',#468);
#221=VERTEX_POINT('',#471);
#222=VERTEX_POINT('',#474);
#223=VERTEX_POINT('',#477);
#224=VERTEX_POINT('',#480);
#225=EDGE_CURVE('',#204,#204,#245,.T.);
#226=EDGE_CURVE('',#205,#205,#246,.T.);
#227=EDGE_CURVE('',#206,#206,#247,.T.);
#228=EDGE_CURVE('',#207,#207,#248,.T.);
#229=EDGE_CURVE('',#208,#208,#249,.T.);
#230=EDGE_CURVE('',#209,#209,#250,.T.);
#231=EDGE_CURVE('',#210,#210,#251,.T.);
#232=EDGE_CURVE('',#211,#211,#252,.T.);
#233=EDGE_CURVE('',#212,#212,#253,.T.);
#234=EDGE_CURVE('',#214,#214,#254,.T.);
#235=EDGE_CURVE('',#215,#215,#255,.T.);
#236=EDGE_CURVE('',#216,#216,#256,.T.);
#237=EDGE_CURVE('',#217,#217,#257,.T.);
#238=EDGE_CURVE('',#218,#218,#258,.T.);
#239=EDGE_CURVE('',#219,#219,#259,.T.);
#240=EDGE_CURVE('',#220,#220,#260,.T.);
#241=EDGE_CURVE('',#221,#221,#261,.T.);
#242=EDGE_CURVE('',#222,#222,#262,.T.);
#243=EDGE_CURVE('',#223,#223,#263,.T.);
#244=EDGE_CURVE('',#224,#224,#264,.T.);
#245=CIRCLE('',#286,7.93475000000002);
#246=CIRCLE('',#287,7.93475);
#247=CIRCLE('',#289,7.41916758856942);
#248=CIRCLE('',#291,5.97717786590914);
#249=CIRCLE('',#293,5.46171729835344);
#250=CIRCLE('',#295,4.575);
#251=CIRCLE('',#297,4.09003961525413);
#252=CIRCLE('',#299,6.93475);
#253=CIRCLE('',#302,2.225);
#254=CIRCLE('',#304,2.225);
#255=CIRCLE('',#306,2.3732361909795);
#256=CIRCLE('',#308,2.41442974062627);
#257=CIRCLE('',#310,2.72160459229349);
#258=CIRCLE('',#312,2.59027234429821);
#259=CIRCLE('',#314,3.13);
#260=CIRCLE('',#316,3.49989850088453);
#261=CIRCLE('',#318,3.64813469186403);
#262=CIRCLE('',#320,3.64813469186403);
#263=CIRCLE('',#322,3.54813469186403);
#264=CIRCLE('',#324,3.59003961525413);
#265=PRESENTATION_LAYER_ASSIGNMENT('1','Layer 1',(#283,#284,#285,#38));
#266=STYLED_ITEM('',(#270),#283);
#267=STYLED_ITEM('',(#271),#284);
#268=STYLED_ITEM('',(#272),#285);
#269=STYLED_ITEM('',(#273),#38);
#270=PRESENTATION_STYLE_ASSIGNMENT((#274));
#271=PRESENTATION_STYLE_ASSIGNMENT((#275));
#272=PRESENTATION_STYLE_ASSIGNMENT((#276));
#273=PRESENTATION_STYLE_ASSIGNMENT((#33));
#274=CURVE_STYLE('',#279,POSITIVE_LENGTH_MEASURE(0.18),#277);
#275=CURVE_STYLE('',#280,POSITIVE_LENGTH_MEASURE(0.18),#277);
#276=CURVE_STYLE('',#281,POSITIVE_LENGTH_MEASURE(0.18),#277);
#277=COLOUR_RGB('Strong Stone',0.576470588235294,0.54508278019379,0.392156862745098);
#278=COLOUR_RGB('Medium Gray',0.490196078431373,0.490196078431373,0.490196078431373);
#279=DRAUGHTING_PRE_DEFINED_CURVE_FONT('continuous');
#280=DRAUGHTING_PRE_DEFINED_CURVE_FONT('continuous');
#281=DRAUGHTING_PRE_DEFINED_CURVE_FONT('continuous');
#282=AXIS2_PLACEMENT_3D('',#417,#327,#328);
#283=AXIS2_PLACEMENT_3D('PCS',#418,#329,#330);
#284=AXIS2_PLACEMENT_3D('MCS',#419,#331,#332);
#285=AXIS2_PLACEMENT_3D('CSW',#420,#333,#334);
#286=AXIS2_PLACEMENT_3D('',#421,#335,#336);
#287=AXIS2_PLACEMENT_3D('',#423,#337,#338);
#288=AXIS2_PLACEMENT_3D('',#425,#339,#340);
#289=AXIS2_PLACEMENT_3D('',#426,#341,#342);
#290=AXIS2_PLACEMENT_3D('',#428,#343,#344);
#291=AXIS2_PLACEMENT_3D('',#429,#345,#346);
#292=AXIS2_PLACEMENT_3D('',#431,#347,#348);
#293=AXIS2_PLACEMENT_3D('',#432,#349,#350);
#294=AXIS2_PLACEMENT_3D('',#434,#351,#352);
#295=AXIS2_PLACEMENT_3D('',#435,#353,#354);
#296=AXIS2_PLACEMENT_3D('',#437,#355,#356);
#297=AXIS2_PLACEMENT_3D('',#438,#357,#358);
#298=AXIS2_PLACEMENT_3D('',#440,#359,#360);
#299=AXIS2_PLACEMENT_3D('',#441,#361,#362);
#300=AXIS2_PLACEMENT_3D('',#443,#363,#364);
#301=AXIS2_PLACEMENT_3D('',#444,#365,#366);
#302=AXIS2_PLACEMENT_3D('',#445,#367,#368);
#303=AXIS2_PLACEMENT_3D('',#448,#369,#370);
#304=AXIS2_PLACEMENT_3D('',#449,#371,#372);
#305=AXIS2_PLACEMENT_3D('',#451,#373,#374);
#306=AXIS2_PLACEMENT_3D('',#452,#375,#376);
#307=AXIS2_PLACEMENT_3D('',#454,#377,#378);
#308=AXIS2_PLACEMENT_3D('',#455,#379,#380);
#309=AXIS2_PLACEMENT_3D('',#457,#381,#382);
#310=AXIS2_PLACEMENT_3D('',#458,#383,#384);
#311=AXIS2_PLACEMENT_3D('',#460,#385,#386);
#312=AXIS2_PLACEMENT_3D('',#461,#387,#388);
#313=AXIS2_PLACEMENT_3D('',#463,#389,#390);
#314=AXIS2_PLACEMENT_3D('',#464,#391,#392);
#315=AXIS2_PLACEMENT_3D('',#466,#393,#394);
#316=AXIS2_PLACEMENT_3D('',#467,#395,#396);
#317=AXIS2_PLACEMENT_3D('',#469,#397,#398);
#318=AXIS2_PLACEMENT_3D('',#470,#399,#400);
#319=AXIS2_PLACEMENT_3D('',#472,#401,#402);
#320=AXIS2_PLACEMENT_3D('',#473,#403,#404);
#321=AXIS2_PLACEMENT_3D('',#475,#405,#406);
#322=AXIS2_PLACEMENT_3D('',#476,#407,#408);
#323=AXIS2_PLACEMENT_3D('',#478,#409,#410);
#324=AXIS2_PLACEMENT_3D('',#479,#411,#412);
#325=AXIS2_PLACEMENT_3D('',#481,#413,#414);
#326=AXIS2_PLACEMENT_3D('',#482,#415,#416);
#327=DIRECTION('',(0.,0.,1.));
#328=DIRECTION('',(1.,0.,0.));
#329=DIRECTION('',(0.,0.,1.));
#330=DIRECTION('',(1.,0.,0.));
#331=DIRECTION('',(0.,0.,1.));
#332=DIRECTION('',(1.,0.,0.));
#333=DIRECTION('',(0.,0.,1.));
#334=DIRECTION('',(1.,0.,0.));
#335=DIRECTION('',(0.,0.,-1.));
#336=DIRECTION('',(1.,0.,0.));
#337=DIRECTION('',(0.,0.,-1.));
#338=DIRECTION('',(1.,0.,0.));
#339=DIRECTION('',(0.,0.,-1.));
#340=DIRECTION('',(1.,0.,0.));
#341=DIRECTION('',(0.,0.,-1.));
#342=DIRECTION('',(1.,0.,0.));
#343=DIRECTION('',(0.,0.,-1.));
#344=DIRECTION('',(1.,0.,0.));
#345=DIRECTION('',(0.,0.,-1.));
#346=DIRECTION('',(1.,0.,0.));
#347=DIRECTION('',(0.,0.,1.));
#348=DIRECTION('',(-1.,0.,0.));
#349=DIRECTION('',(0.,0.,-1.));
#350=DIRECTION('',(1.,0.,0.));
#351=DIRECTION('',(0.,0.,-1.));
#352=DIRECTION('',(1.,0.,0.));
#353=DIRECTION('',(0.,0.,-1.));
#354=DIRECTION('',(1.,0.,0.));
#355=DIRECTION('',(0.,0.,1.));
#356=DIRECTION('',(-1.,0.,-1.25989531606319E-15));
#357=DIRECTION('',(0.,0.,-1.));
#358=DIRECTION('',(1.,0.,0.));
#359=DIRECTION('',(0.,0.,-1.));
#360=DIRECTION('',(1.,0.,0.));
#361=DIRECTION('',(0.,0.,-1.));
#362=DIRECTION('',(1.,0.,0.));
#363=DIRECTION('',(0.,0.,-1.));
#364=DIRECTION('',(1.,0.,0.));
#365=DIRECTION('',(0.,0.,-1.));
#366=DIRECTION('',(1.,0.,0.));
#367=DIRECTION('',(0.,0.,-1.));
#368=DIRECTION('',(1.,0.,0.));
#369=DIRECTION('',(0.,0.,-1.));
#370=DIRECTION('',(1.,0.,0.));
#371=DIRECTION('',(0.,0.,-1.));
#372=DIRECTION('',(1.,0.,0.));
#373=DIRECTION('',(0.,0.,-1.));
#374=DIRECTION('',(1.,0.,0.));
#375=DIRECTION('',(0.,0.,-1.));
#376=DIRECTION('',(1.,0.,0.));
#377=DIRECTION('',(0.,0.,-1.));
#378=DIRECTION('',(1.,0.,0.));
#379=DIRECTION('',(0.,0.,-1.));
#380=DIRECTION('',(1.,0.,0.));
#381=DIRECTION('',(0.,0.,-1.));
#382=DIRECTION('',(1.,0.,2.9729431141624E-17));
#383=DIRECTION('',(0.,0.,-1.));
#384=DIRECTION('',(1.,0.,0.));
#385=DIRECTION('',(0.,0.,-1.));
#386=DIRECTION('',(1.,0.,0.));
#387=DIRECTION('',(0.,0.,-1.));
#388=DIRECTION('',(1.,0.,0.));
#389=DIRECTION('',(0.,0.,1.));
#390=DIRECTION('',(-1.,0.,0.));
#391=DIRECTION('',(0.,0.,-1.));
#392=DIRECTION('',(1.,0.,0.));
#393=DIRECTION('',(0.,0.,-1.));
#394=DIRECTION('',(1.,0.,-2.57725080244094E-16));
#395=DIRECTION('',(0.,0.,-1.));
#396=DIRECTION('',(1.,0.,0.));
#397=DIRECTION('',(0.,0.,-1.));
#398=DIRECTION('',(1.,0.,1.48617039150479E-17));
#399=DIRECTION('',(0.,0.,-1.));
#400=DIRECTION('',(1.,0.,0.));
#401=DIRECTION('',(0.,0.,-1.));
#402=DIRECTION('',(1.,0.,0.));
#403=DIRECTION('',(0.,0.,-1.));
#404=DIRECTION('',(1.,0.,0.));
#405=DIRECTION('',(0.,0.,-1.));
#406=DIRECTION('',(1.,0.,0.));
#407=DIRECTION('',(0.,0.,-1.));
#408=DIRECTION('',(1.,0.,0.));
#409=DIRECTION('',(0.,0.,-1.));
#410=DIRECTION('',(1.,0.,0.));
#411=DIRECTION('',(0.,0.,-1.));
#412=DIRECTION('',(1.,0.,0.));
#413=DIRECTION('',(0.,0.,-1.));
#414=DIRECTION('',(1.,0.,7.21506791125412E-16));
#415=DIRECTION('',(0.,0.,-1.));
#416=DIRECTION('',(1.,0.,-8.29688653335068E-17));
#417=CARTESIAN_POINT('',(0.,0.,0.));
#418=CARTESIAN_POINT('',(0.,0.,0.));
#419=CARTESIAN_POINT('',(0.,0.,-48.));
#420=CARTESIAN_POINT('',(0.,0.,-165.1));
#421=CARTESIAN_POINT('',(0.,0.,-112.27));
#422=CARTESIAN_POINT('',(7.93475000000002,0.,-112.27));
#423=CARTESIAN_POINT('',(0.,0.,-1.));
#424=CARTESIAN_POINT('',(7.93475,0.,-1.));
#425=CARTESIAN_POINT('',(0.,0.,70.5183697733042));
#426=CARTESIAN_POINT('',(0.,0.,-113.017734334715));
#427=CARTESIAN_POINT('',(7.41916758856942,0.,-113.017734334715));
#428=CARTESIAN_POINT('',(0.,0.,-112.27));
#429=CARTESIAN_POINT('',(0.,0.,-113.566227590434));
#430=CARTESIAN_POINT('',(5.97717786590914,0.,-113.566227590434));
#431=CARTESIAN_POINT('',(0.,0.,-113.566227590434));
#432=CARTESIAN_POINT('',(0.,0.,-114.3));
#433=CARTESIAN_POINT('',(5.46171729835344,0.,-114.3));
#434=CARTESIAN_POINT('',(0.,0.,-114.31396192515));
#435=CARTESIAN_POINT('',(0.,0.,-165.1));
#436=CARTESIAN_POINT('',(4.575,0.,-165.1));
#437=CARTESIAN_POINT('',(0.,0.,-165.1));
#438=CARTESIAN_POINT('',(0.,0.,-165.1));
#439=CARTESIAN_POINT('',(4.09003961525413,0.,-165.1));
#440=CARTESIAN_POINT('',(2.22044604925031E-14,0.,-165.1));
#441=CARTESIAN_POINT('',(0.,0.,0.));
#442=CARTESIAN_POINT('',(6.93475,0.,0.));
#443=CARTESIAN_POINT('',(0.,0.,0.));
#444=CARTESIAN_POINT('',(0.,0.,0.));
#445=CARTESIAN_POINT('',(0.,0.,-152.1));
#446=CARTESIAN_POINT('',(2.225,0.,-152.1));
#447=CARTESIAN_POINT('',(-4.44089209850063E-16,0.,-150.763085122664));
#448=CARTESIAN_POINT('',(0.,0.,-150.763085122664));
#449=CARTESIAN_POINT('',(0.,0.,-155.4));
#450=CARTESIAN_POINT('',(2.225,0.,-155.4));
#451=CARTESIAN_POINT('',(0.,0.,-165.1));
#452=CARTESIAN_POINT('',(0.,0.,-155.593185165258));
#453=CARTESIAN_POINT('',(2.3732361909795,0.,-155.593185165258));
#454=CARTESIAN_POINT('',(0.,0.,-155.4));
#455=CARTESIAN_POINT('',(0.,0.,-155.604222943619));
#456=CARTESIAN_POINT('',(2.41442974062627,0.,-155.604222943619));
#457=CARTESIAN_POINT('',(0.,0.,-155.593185165258));
#458=CARTESIAN_POINT('',(0.,0.,-156.989799159145));
#459=CARTESIAN_POINT('',(2.72160459229349,0.,-156.989799159145));
#460=CARTESIAN_POINT('',(0.,0.,-156.37696360465));
#461=CARTESIAN_POINT('',(0.,0.,-157.1));
#462=CARTESIAN_POINT('',(2.59027234429821,0.,-157.1));
#463=CARTESIAN_POINT('',(0.,0.,-156.989799159145));
#464=CARTESIAN_POINT('',(0.,0.,-162.23516562237));
#465=CARTESIAN_POINT('',(3.13,0.,-162.23516562237));
#466=CARTESIAN_POINT('',(0.,0.,-157.1));
#467=CARTESIAN_POINT('',(0.,0.,-162.334279626963));
#468=CARTESIAN_POINT('',(3.49989850088453,0.,-162.334279626963));
#469=CARTESIAN_POINT('',(0.,0.,-162.23516562237));
#470=CARTESIAN_POINT('',(0.,0.,-162.527464792221));
#471=CARTESIAN_POINT('',(3.64813469186403,0.,-162.527464792221));
#472=CARTESIAN_POINT('',(0.,0.,-162.527464792221));
#473=CARTESIAN_POINT('',(0.,0.,-163.226794919243));
#474=CARTESIAN_POINT('',(3.64813469186403,0.,-163.226794919243));
#475=CARTESIAN_POINT('',(0.,0.,-165.1));
#476=CARTESIAN_POINT('',(0.,0.,-163.4));
#477=CARTESIAN_POINT('',(3.54813469186403,0.,-163.4));
#478=CARTESIAN_POINT('',(0.,0.,-163.226794919243));
#479=CARTESIAN_POINT('',(0.,0.,-164.6));
#480=CARTESIAN_POINT('',(3.59003961525413,0.,-164.6));
#481=CARTESIAN_POINT('',(0.,0.,-163.4));
#482=CARTESIAN_POINT('',(0.,0.,-164.6));
#483=MECHANICAL_DESIGN_GEOMETRIC_PRESENTATION_REPRESENTATION('',(#266,#267,
#268,#269),#484);
#484=(
GEOMETRIC_REPRESENTATION_CONTEXT(3)
GLOBAL_UNCERTAINTY_ASSIGNED_CONTEXT((#485))
GLOBAL_UNIT_ASSIGNED_CONTEXT((#491,#487,#486))
REPRESENTATION_CONTEXT('XE10.625J5-6.50-01','TOP_LEVEL_ASSEMBLY_PART')
);
#485=UNCERTAINTY_MEASURE_WITH_UNIT(LENGTH_MEASURE(2.E-5),#491,
'DISTANCE_ACCURACY_VALUE','Maximum Tolerance applied to model');
#486=(
NAMED_UNIT(*)
SI_UNIT($,.STERADIAN.)
SOLID_ANGLE_UNIT()
);
#487=(
CONVERSION_BASED_UNIT('DEGREE',#489)
NAMED_UNIT(#488)
PLANE_ANGLE_UNIT()
);
#488=DIMENSIONAL_EXPONENTS(0.,0.,0.,0.,0.,0.,0.);
#489=PLANE_ANGLE_MEASURE_WITH_UNIT(PLANE_ANGLE_MEASURE(0.0174532925),#490);
#490=(
NAMED_UNIT(*)
PLANE_ANGLE_UNIT()
SI_UNIT($,.RADIAN.)
);
#491=(
LENGTH_UNIT()
NAMED_UNIT(*)
SI_UNIT(.MILLI.,.METRE.)
);
ENDSEC;
END-ISO-10303-21;
