ISO-10303-21;
HEADER;
/* Generated by software containing ST-Developer
 * from STEP Tools, Inc. (www.steptools.com) 
 */
/* OPTION: using custom schema-name function */

FILE_DESCRIPTION(
/* description */ (''),
/* implementation_level */ '2;1');

FILE_NAME(
/* name */ 'XE12.625J2-6.50-05.0S_Basic.stp',
/* time_stamp */ '2022-07-29T16:21:50+06:00',
/* author */ (''),
/* organization */ (''),
/* preprocessor_version */ 'ST-DEVELOPER v16.7',
/* originating_system */ 'SIEMENS PLM Software NX 12.0',
/* authorisation */ '');

FILE_SCHEMA (('AUTOMOTIVE_DESIGN { 1 0 10303 214 3 1 1 1 }'));
ENDSEC;

DATA;
#10=CONSTRUCTIVE_GEOMETRY_REPRESENTATION_RELATIONSHIP(
'supplemental geometry','',#34,#11);
#11=CONSTRUCTIVE_GEOMETRY_REPRESENTATION('supplemental geometry',(#258,
#259,#260,#261),#430);
#12=GEOMETRICALLY_BOUNDED_WIREFRAME_SHAPE_REPRESENTATION(
'inco4FC439F6rwzw-None',(#35),#430);
#13=PROPERTY_DEFINITION_REPRESENTATION(#17,#15);
#14=PROPERTY_DEFINITION_REPRESENTATION(#18,#16);
#15=REPRESENTATION('',(#19),#430);
#16=REPRESENTATION('',(#20),#430);
#17=PROPERTY_DEFINITION('pmi validation property','',#25);
#18=PROPERTY_DEFINITION('pmi validation property','',#25);
#19=VALUE_REPRESENTATION_ITEM('number of annotations',COUNT_MEASURE(0.));
#20=VALUE_REPRESENTATION_ITEM('number of views',COUNT_MEASURE(0.));
#21=SHAPE_REPRESENTATION_RELATIONSHIP('None',
'relationship between inco4FC439F6rwzw-None and inco4FC439F6rwzw-None',
#34,#23);
#22=SHAPE_REPRESENTATION_RELATIONSHIP('None',
'relationship between inco4FC439F6rwzw-None and inco4FC439F6rwzw-None',
#34,#12);
#23=ADVANCED_BREP_SHAPE_REPRESENTATION('inco4FC439F6rwzw-None',(#41),#430);
#24=SHAPE_DEFINITION_REPRESENTATION(#25,#34);
#25=PRODUCT_DEFINITION_SHAPE('','',#26);
#26=PRODUCT_DEFINITION(' ','',#28,#27);
#27=PRODUCT_DEFINITION_CONTEXT('part definition',#33,'design');
#28=PRODUCT_DEFINITION_FORMATION_WITH_SPECIFIED_SOURCE(' ',' ',#30,
 .NOT_KNOWN.);
#29=PRODUCT_RELATED_PRODUCT_CATEGORY('part','',(#30));
#30=PRODUCT('inco4FC439F6rwzw','inco4FC439F6rwzw',' ',(#31));
#31=PRODUCT_CONTEXT(' ',#33,'mechanical');
#32=APPLICATION_PROTOCOL_DEFINITION('international standard',
'automotive_design',2010,#33);
#33=APPLICATION_CONTEXT(
'core data for automotive mechanical design processes');
#34=SHAPE_REPRESENTATION('inco4FC439F6rwzw-None',(#257),#430);
#35=GEOMETRIC_CURVE_SET('None',(#372,#373,#374));
#36=SURFACE_STYLE_USAGE(.BOTH.,#37);
#37=SURFACE_SIDE_STYLE('',(#38));
#38=SURFACE_STYLE_FILL_AREA(#39);
#39=FILL_AREA_STYLE('',(#40));
#40=FILL_AREA_STYLE_COLOUR('',#256);
#41=MANIFOLD_SOLID_BREP('NOCUT',#42);
#42=CLOSED_SHELL('',(#59,#60,#61,#62,#63,#64,#65,#66,#67,#68,#69,#70,#71,
#72,#73,#74,#75));
#43=TOROIDAL_SURFACE('',#279,2.81495321756222,1.);
#44=TOROIDAL_SURFACE('',#287,4.1301584610165,0.5);
#45=TOROIDAL_SURFACE('',#291,4.1301584610165,0.500000000000005);
#46=VERTEX_LOOP('',#181);
#47=FACE_OUTER_BOUND('',#117,.T.);
#48=PLANE('',#268);
#49=PLANE('',#270);
#50=CONICAL_SURFACE('',#266,7.93474999999998,4.99999999999999);
#51=CONICAL_SURFACE('',#271,6.93475,45.);
#52=CONICAL_SURFACE('',#273,0.,59.);
#53=CONICAL_SURFACE('',#277,2.775,75.0000000000006);
#54=CONICAL_SURFACE('',#281,3.75464583834813,20.0000000000001);
#55=CONICAL_SURFACE('',#283,3.49549967072475,6.);
#56=CONICAL_SURFACE('',#285,4.,70.0000000000001);
#57=CONICAL_SURFACE('',#293,4.5301584610165,2.00000000000003);
#58=CONICAL_SURFACE('',#294,4.58253961525413,47.);
#59=ADVANCED_FACE('FP_EH_SU1',(#79,#80),#76,.T.);
#60=ADVANCED_FACE('FP_EH_SU3',(#81,#82),#50,.T.);
#61=ADVANCED_FACE('FP_EH_SU4',(#83,#84),#48,.T.);
#62=ADVANCED_FACE('',(#47),#49,.F.);
#63=ADVANCED_FACE('',(#85,#86),#51,.T.);
#64=ADVANCED_FACE('',(#87,#88),#52,.F.);
#65=ADVANCED_FACE('DCH3',(#89,#90),#77,.F.);
#66=ADVANCED_FACE('',(#91,#92),#53,.F.);
#67=ADVANCED_FACE('',(#93,#94),#43,.F.);
#68=ADVANCED_FACE('',(#95,#96),#54,.F.);
#69=ADVANCED_FACE('TSALN',(#97,#98),#55,.F.);
#70=ADVANCED_FACE('',(#99,#100),#56,.F.);
#71=ADVANCED_FACE('',(#101,#102),#44,.F.);
#72=ADVANCED_FACE('DCH2',(#103,#104),#78,.F.);
#73=ADVANCED_FACE('',(#105,#106),#45,.F.);
#74=ADVANCED_FACE('TSAN',(#107,#108),#57,.F.);
#75=ADVANCED_FACE('DCH4',(#109,#110),#58,.F.);
#76=CYLINDRICAL_SURFACE('',#264,7.93474999999999);
#77=CYLINDRICAL_SURFACE('',#275,2.775);
#78=CYLINDRICAL_SURFACE('',#289,4.63015846101651);
#79=FACE_BOUND('',#111,.T.);
#80=FACE_BOUND('',#112,.T.);
#81=FACE_BOUND('',#113,.T.);
#82=FACE_BOUND('',#114,.T.);
#83=FACE_BOUND('',#115,.T.);
#84=FACE_BOUND('',#116,.T.);
#85=FACE_BOUND('',#118,.T.);
#86=FACE_BOUND('',#119,.T.);
#87=FACE_BOUND('',#120,.T.);
#88=FACE_BOUND('',#46,.T.);
#89=FACE_BOUND('',#121,.T.);
#90=FACE_BOUND('',#122,.T.);
#91=FACE_BOUND('',#123,.T.);
#92=FACE_BOUND('',#124,.T.);
#93=FACE_BOUND('',#125,.T.);
#94=FACE_BOUND('',#126,.T.);
#95=FACE_BOUND('',#127,.T.);
#96=FACE_BOUND('',#128,.T.);
#97=FACE_BOUND('',#129,.T.);
#98=FACE_BOUND('',#130,.T.);
#99=FACE_BOUND('',#131,.T.);
#100=FACE_BOUND('',#132,.T.);
#101=FACE_BOUND('',#133,.T.);
#102=FACE_BOUND('',#134,.T.);
#103=FACE_BOUND('',#135,.T.);
#104=FACE_BOUND('',#136,.T.);
#105=FACE_BOUND('',#137,.T.);
#106=FACE_BOUND('',#138,.T.);
#107=FACE_BOUND('',#139,.T.);
#108=FACE_BOUND('',#140,.T.);
#109=FACE_BOUND('',#141,.T.);
#110=FACE_BOUND('',#142,.T.);
#111=EDGE_LOOP('',(#143));
#112=EDGE_LOOP('',(#144));
#113=EDGE_LOOP('',(#145));
#114=EDGE_LOOP('',(#146));
#115=EDGE_LOOP('',(#147));
#116=EDGE_LOOP('',(#148));
#117=EDGE_LOOP('',(#149));
#118=EDGE_LOOP('',(#150));
#119=EDGE_LOOP('',(#151));
#120=EDGE_LOOP('',(#152));
#121=EDGE_LOOP('',(#153));
#122=EDGE_LOOP('',(#154));
#123=EDGE_LOOP('',(#155));
#124=EDGE_LOOP('',(#156));
#125=EDGE_LOOP('',(#157));
#126=EDGE_LOOP('',(#158));
#127=EDGE_LOOP('',(#159));
#128=EDGE_LOOP('',(#160));
#129=EDGE_LOOP('',(#161));
#130=EDGE_LOOP('',(#162));
#131=EDGE_LOOP('',(#163));
#132=EDGE_LOOP('',(#164));
#133=EDGE_LOOP('',(#165));
#134=EDGE_LOOP('',(#166));
#135=EDGE_LOOP('',(#167));
#136=EDGE_LOOP('',(#168));
#137=EDGE_LOOP('',(#169));
#138=EDGE_LOOP('',(#170));
#139=EDGE_LOOP('',(#171));
#140=EDGE_LOOP('',(#172));
#141=EDGE_LOOP('',(#173));
#142=EDGE_LOOP('',(#174));
#143=ORIENTED_EDGE('',*,*,#192,.T.);
#144=ORIENTED_EDGE('',*,*,#193,.T.);
#145=ORIENTED_EDGE('',*,*,#194,.T.);
#146=ORIENTED_EDGE('',*,*,#192,.F.);
#147=ORIENTED_EDGE('',*,*,#195,.F.);
#148=ORIENTED_EDGE('',*,*,#194,.F.);
#149=ORIENTED_EDGE('',*,*,#196,.F.);
#150=ORIENTED_EDGE('',*,*,#193,.F.);
#151=ORIENTED_EDGE('',*,*,#196,.T.);
#152=ORIENTED_EDGE('',*,*,#197,.T.);
#153=ORIENTED_EDGE('',*,*,#198,.T.);
#154=ORIENTED_EDGE('',*,*,#197,.F.);
#155=ORIENTED_EDGE('',*,*,#199,.T.);
#156=ORIENTED_EDGE('',*,*,#198,.F.);
#157=ORIENTED_EDGE('',*,*,#200,.T.);
#158=ORIENTED_EDGE('',*,*,#199,.F.);
#159=ORIENTED_EDGE('',*,*,#201,.T.);
#160=ORIENTED_EDGE('',*,*,#200,.F.);
#161=ORIENTED_EDGE('',*,*,#202,.T.);
#162=ORIENTED_EDGE('',*,*,#201,.F.);
#163=ORIENTED_EDGE('',*,*,#203,.T.);
#164=ORIENTED_EDGE('',*,*,#202,.F.);
#165=ORIENTED_EDGE('',*,*,#204,.T.);
#166=ORIENTED_EDGE('',*,*,#203,.F.);
#167=ORIENTED_EDGE('',*,*,#205,.T.);
#168=ORIENTED_EDGE('',*,*,#204,.F.);
#169=ORIENTED_EDGE('',*,*,#206,.T.);
#170=ORIENTED_EDGE('',*,*,#205,.F.);
#171=ORIENTED_EDGE('',*,*,#207,.T.);
#172=ORIENTED_EDGE('',*,*,#206,.F.);
#173=ORIENTED_EDGE('',*,*,#195,.T.);
#174=ORIENTED_EDGE('',*,*,#207,.F.);
#175=VERTEX_POINT('',#380);
#176=VERTEX_POINT('',#382);
#177=VERTEX_POINT('',#385);
#178=VERTEX_POINT('',#388);
#179=VERTEX_POINT('',#391);
#180=VERTEX_POINT('',#395);
#181=VERTEX_POINT('',#396);
#182=VERTEX_POINT('',#399);
#183=VERTEX_POINT('',#402);
#184=VERTEX_POINT('',#405);
#185=VERTEX_POINT('',#408);
#186=VERTEX_POINT('',#411);
#187=VERTEX_POINT('',#414);
#188=VERTEX_POINT('',#417);
#189=VERTEX_POINT('',#420);
#190=VERTEX_POINT('',#423);
#191=VERTEX_POINT('',#426);
#192=EDGE_CURVE('',#175,#175,#208,.T.);
#193=EDGE_CURVE('',#176,#176,#209,.T.);
#194=EDGE_CURVE('',#177,#177,#210,.T.);
#195=EDGE_CURVE('',#178,#178,#211,.T.);
#196=EDGE_CURVE('',#179,#179,#212,.T.);
#197=EDGE_CURVE('',#180,#180,#213,.T.);
#198=EDGE_CURVE('',#182,#182,#214,.T.);
#199=EDGE_CURVE('',#183,#183,#215,.T.);
#200=EDGE_CURVE('',#184,#184,#216,.T.);
#201=EDGE_CURVE('',#185,#185,#217,.T.);
#202=EDGE_CURVE('',#186,#186,#218,.T.);
#203=EDGE_CURVE('',#187,#187,#219,.T.);
#204=EDGE_CURVE('',#188,#188,#220,.T.);
#205=EDGE_CURVE('',#189,#189,#221,.T.);
#206=EDGE_CURVE('',#190,#190,#222,.T.);
#207=EDGE_CURVE('',#191,#191,#223,.T.);
#208=CIRCLE('',#262,7.93474999999999);
#209=CIRCLE('',#263,7.93475);
#210=CIRCLE('',#265,6.09999999999998);
#211=CIRCLE('',#267,5.11872397026647);
#212=CIRCLE('',#269,6.93475);
#213=CIRCLE('',#272,2.775);
#214=CIRCLE('',#274,2.775);
#215=CIRCLE('',#276,3.07377226266474);
#216=CIRCLE('',#278,3.75464583834813);
#217=CIRCLE('',#280,3.49549967072475);
#218=CIRCLE('',#282,4.);
#219=CIRCLE('',#284,4.30116853267934);
#220=CIRCLE('',#286,4.6301584610165);
#221=CIRCLE('',#288,4.63015846101651);
#222=CIRCLE('',#290,4.5301584610165);
#223=CIRCLE('',#292,4.58253961525413);
#224=CURVE_STYLE('',#228,POSITIVE_LENGTH_MEASURE(0.13),#255);
#225=CURVE_STYLE('',#229,POSITIVE_LENGTH_MEASURE(0.18),#255);
#226=CURVE_STYLE('',#230,POSITIVE_LENGTH_MEASURE(0.18),#255);
#227=CURVE_STYLE('',#231,POSITIVE_LENGTH_MEASURE(0.18),#255);
#228=DRAUGHTING_PRE_DEFINED_CURVE_FONT('continuous');
#229=DRAUGHTING_PRE_DEFINED_CURVE_FONT('continuous');
#230=DRAUGHTING_PRE_DEFINED_CURVE_FONT('continuous');
#231=DRAUGHTING_PRE_DEFINED_CURVE_FONT('continuous');
#232=PRESENTATION_LAYER_ASSIGNMENT('1','Layer 1',(#372,#373,#374,#258,#259,
#260,#261,#41));
#233=STYLED_ITEM('',(#241),#372);
#234=STYLED_ITEM('',(#242),#373);
#235=STYLED_ITEM('',(#243),#374);
#236=STYLED_ITEM('',(#244),#258);
#237=STYLED_ITEM('',(#245),#259);
#238=STYLED_ITEM('',(#246),#260);
#239=STYLED_ITEM('',(#247),#261);
#240=STYLED_ITEM('',(#248),#41);
#241=PRESENTATION_STYLE_ASSIGNMENT((#249));
#242=PRESENTATION_STYLE_ASSIGNMENT((#250));
#243=PRESENTATION_STYLE_ASSIGNMENT((#251));
#244=PRESENTATION_STYLE_ASSIGNMENT((#224));
#245=PRESENTATION_STYLE_ASSIGNMENT((#225));
#246=PRESENTATION_STYLE_ASSIGNMENT((#226));
#247=PRESENTATION_STYLE_ASSIGNMENT((#227));
#248=PRESENTATION_STYLE_ASSIGNMENT((#36));
#249=POINT_STYLE('',#252,POSITIVE_LENGTH_MEASURE(3.),#255);
#250=POINT_STYLE('',#253,POSITIVE_LENGTH_MEASURE(3.),#255);
#251=POINT_STYLE('',#254,POSITIVE_LENGTH_MEASURE(3.),#255);
#252=PRE_DEFINED_POINT_MARKER_SYMBOL('plus');
#253=PRE_DEFINED_POINT_MARKER_SYMBOL('plus');
#254=PRE_DEFINED_POINT_MARKER_SYMBOL('plus');
#255=COLOUR_RGB('Strong Stone',0.576470588235294,0.54508278019379,0.392156862745098);
#256=COLOUR_RGB('Medium Gray',0.490196078431373,0.490196078431373,0.490196078431373);
#257=AXIS2_PLACEMENT_3D('',#371,#295,#296);
#258=AXIS2_PLACEMENT_3D('',#375,#297,#298);
#259=AXIS2_PLACEMENT_3D('PCS',#376,#299,#300);
#260=AXIS2_PLACEMENT_3D('MCS',#377,#301,#302);
#261=AXIS2_PLACEMENT_3D('CSW',#378,#303,#304);
#262=AXIS2_PLACEMENT_3D('',#379,#305,#306);
#263=AXIS2_PLACEMENT_3D('',#381,#307,#308);
#264=AXIS2_PLACEMENT_3D('',#383,#309,#310);
#265=AXIS2_PLACEMENT_3D('',#384,#311,#312);
#266=AXIS2_PLACEMENT_3D('',#386,#313,#314);
#267=AXIS2_PLACEMENT_3D('',#387,#315,#316);
#268=AXIS2_PLACEMENT_3D('',#389,#317,#318);
#269=AXIS2_PLACEMENT_3D('',#390,#319,#320);
#270=AXIS2_PLACEMENT_3D('',#392,#321,#322);
#271=AXIS2_PLACEMENT_3D('',#393,#323,#324);
#272=AXIS2_PLACEMENT_3D('',#394,#325,#326);
#273=AXIS2_PLACEMENT_3D('',#397,#327,#328);
#274=AXIS2_PLACEMENT_3D('',#398,#329,#330);
#275=AXIS2_PLACEMENT_3D('',#400,#331,#332);
#276=AXIS2_PLACEMENT_3D('',#401,#333,#334);
#277=AXIS2_PLACEMENT_3D('',#403,#335,#336);
#278=AXIS2_PLACEMENT_3D('',#404,#337,#338);
#279=AXIS2_PLACEMENT_3D('',#406,#339,#340);
#280=AXIS2_PLACEMENT_3D('',#407,#341,#342);
#281=AXIS2_PLACEMENT_3D('',#409,#343,#344);
#282=AXIS2_PLACEMENT_3D('',#410,#345,#346);
#283=AXIS2_PLACEMENT_3D('',#412,#347,#348);
#284=AXIS2_PLACEMENT_3D('',#413,#349,#350);
#285=AXIS2_PLACEMENT_3D('',#415,#351,#352);
#286=AXIS2_PLACEMENT_3D('',#416,#353,#354);
#287=AXIS2_PLACEMENT_3D('',#418,#355,#356);
#288=AXIS2_PLACEMENT_3D('',#419,#357,#358);
#289=AXIS2_PLACEMENT_3D('',#421,#359,#360);
#290=AXIS2_PLACEMENT_3D('',#422,#361,#362);
#291=AXIS2_PLACEMENT_3D('',#424,#363,#364);
#292=AXIS2_PLACEMENT_3D('',#425,#365,#366);
#293=AXIS2_PLACEMENT_3D('',#427,#367,#368);
#294=AXIS2_PLACEMENT_3D('',#428,#369,#370);
#295=DIRECTION('',(0.,0.,1.));
#296=DIRECTION('',(1.,0.,0.));
#297=DIRECTION('',(0.,0.,1.));
#298=DIRECTION('',(1.,0.,0.));
#299=DIRECTION('',(0.,0.,1.));
#300=DIRECTION('',(1.,0.,0.));
#301=DIRECTION('',(0.,0.,1.));
#302=DIRECTION('',(1.,0.,0.));
#303=DIRECTION('',(0.,0.,1.));
#304=DIRECTION('',(1.,0.,0.));
#305=DIRECTION('',(-3.00946640906211E-16,0.,1.));
#306=DIRECTION('',(-1.,0.,0.));
#307=DIRECTION('',(0.,0.,-1.));
#308=DIRECTION('',(1.,0.,0.));
#309=DIRECTION('',(-3.00946640906211E-16,0.,1.));
#310=DIRECTION('',(-1.,0.,0.));
#311=DIRECTION('',(-3.00946640906211E-16,0.,1.));
#312=DIRECTION('',(-1.,0.,0.));
#313=DIRECTION('',(-3.00946640906211E-16,0.,1.));
#314=DIRECTION('',(-1.,0.,5.8173512327954E-16));
#315=DIRECTION('',(0.,0.,-1.));
#316=DIRECTION('',(1.,0.,0.));
#317=DIRECTION('',(3.00946640906211E-16,0.,-1.));
#318=DIRECTION('',(1.,0.,3.05311331771918E-16));
#319=DIRECTION('',(0.,0.,-1.));
#320=DIRECTION('',(1.,0.,0.));
#321=DIRECTION('',(0.,0.,-1.));
#322=DIRECTION('',(1.,0.,0.));
#323=DIRECTION('',(0.,0.,-1.));
#324=DIRECTION('',(1.,0.,0.));
#325=DIRECTION('',(0.,0.,-1.));
#326=DIRECTION('',(1.,0.,0.));
#327=DIRECTION('',(0.,0.,-1.));
#328=DIRECTION('',(1.,0.,1.66772323458731E-17));
#329=DIRECTION('',(0.,0.,-1.));
#330=DIRECTION('',(1.,0.,0.));
#331=DIRECTION('',(0.,0.,-1.));
#332=DIRECTION('',(1.,0.,0.));
#333=DIRECTION('',(0.,0.,-1.));
#334=DIRECTION('',(1.,0.,0.));
#335=DIRECTION('',(0.,0.,-1.));
#336=DIRECTION('',(1.,0.,-2.22946748086986E-17));
#337=DIRECTION('',(0.,0.,-1.));
#338=DIRECTION('',(1.,0.,0.));
#339=DIRECTION('',(0.,0.,-1.));
#340=DIRECTION('',(1.,0.,0.));
#341=DIRECTION('',(0.,0.,-1.));
#342=DIRECTION('',(1.,0.,0.));
#343=DIRECTION('',(0.,0.,1.));
#344=DIRECTION('',(-1.,0.,7.54791887014482E-17));
#345=DIRECTION('',(0.,0.,-1.));
#346=DIRECTION('',(1.,0.,0.));
#347=DIRECTION('',(0.,0.,-1.));
#348=DIRECTION('',(1.,0.,-7.66730479550893E-16));
#349=DIRECTION('',(0.,0.,-1.));
#350=DIRECTION('',(1.,0.,0.));
#351=DIRECTION('',(0.,0.,-1.));
#352=DIRECTION('',(1.,0.,-1.00875171351144E-17));
#353=DIRECTION('',(0.,0.,-1.));
#354=DIRECTION('',(1.,0.,0.));
#355=DIRECTION('',(0.,0.,-1.));
#356=DIRECTION('',(1.,0.,0.));
#357=DIRECTION('',(0.,0.,-1.));
#358=DIRECTION('',(1.,0.,0.));
#359=DIRECTION('',(0.,0.,-1.));
#360=DIRECTION('',(1.,0.,0.));
#361=DIRECTION('',(0.,0.,-1.));
#362=DIRECTION('',(1.,0.,0.));
#363=DIRECTION('',(0.,0.,-1.));
#364=DIRECTION('',(1.,0.,0.));
#365=DIRECTION('',(0.,0.,-1.));
#366=DIRECTION('',(1.,0.,0.));
#367=DIRECTION('',(0.,0.,-1.));
#368=DIRECTION('',(1.,0.,-7.03546837956793E-16));
#369=DIRECTION('',(0.,0.,-1.));
#370=DIRECTION('',(1.,0.,-7.73170808564694E-17));
#371=CARTESIAN_POINT('',(0.,0.,0.));
#372=CARTESIAN_POINT('',(0.,0.,0.));
#373=CARTESIAN_POINT('',(0.,0.,-48.));
#374=CARTESIAN_POINT('',(0.,0.,-165.1));
#375=CARTESIAN_POINT('',(0.,0.,0.));
#376=CARTESIAN_POINT('',(0.,0.,0.));
#377=CARTESIAN_POINT('',(0.,0.,-48.));
#378=CARTESIAN_POINT('',(0.,0.,-165.1));
#379=CARTESIAN_POINT('',(1.5005043254541E-14,0.,-144.128711537509));
#380=CARTESIAN_POINT('',(-7.93474999999997,0.,-144.128711537509));
#381=CARTESIAN_POINT('',(0.,0.,-1.));
#382=CARTESIAN_POINT('',(7.93475,0.,-1.));
#383=CARTESIAN_POINT('',(-1.33226762955019E-14,0.,-50.));
#384=CARTESIAN_POINT('',(2.1316282072803E-14,0.,-165.1));
#385=CARTESIAN_POINT('',(-6.09999999999996,0.,-165.1));
#386=CARTESIAN_POINT('',(1.5005043254541E-14,0.,-144.128711537509));
#387=CARTESIAN_POINT('',(0.,0.,-165.1));
#388=CARTESIAN_POINT('',(5.11872397026647,0.,-165.1));
#389=CARTESIAN_POINT('',(6.1,0.,-165.1));
#390=CARTESIAN_POINT('',(0.,0.,0.));
#391=CARTESIAN_POINT('',(6.93475,0.,0.));
#392=CARTESIAN_POINT('',(0.,0.,0.));
#393=CARTESIAN_POINT('',(0.,0.,0.));
#394=CARTESIAN_POINT('',(0.,0.,-150.6));
#395=CARTESIAN_POINT('',(2.775,0.,-150.6));
#396=CARTESIAN_POINT('',(0.,0.,-148.932611782199));
#397=CARTESIAN_POINT('',(0.,0.,-148.932611782199));
#398=CARTESIAN_POINT('',(0.,0.,-154.3));
#399=CARTESIAN_POINT('',(2.775,0.,-154.3));
#400=CARTESIAN_POINT('',(0.,0.,-165.1));
#401=CARTESIAN_POINT('',(0.,0.,-154.380055786502));
#402=CARTESIAN_POINT('',(3.07377226266474,0.,-154.380055786502));
#403=CARTESIAN_POINT('',(0.,0.,-154.3));
#404=CARTESIAN_POINT('',(0.,0.,-155.688001756117));
#405=CARTESIAN_POINT('',(3.75464583834813,0.,-155.688001756117));
#406=CARTESIAN_POINT('',(0.,0.,-155.345981612791));
#407=CARTESIAN_POINT('',(0.,0.,-156.4));
#408=CARTESIAN_POINT('',(3.49549967072475,0.,-156.4));
#409=CARTESIAN_POINT('',(0.,0.,-155.688001756117));
#410=CARTESIAN_POINT('',(0.,0.,-161.2));
#411=CARTESIAN_POINT('',(4.,0.,-161.2));
#412=CARTESIAN_POINT('',(0.,0.,-156.4));
#413=CARTESIAN_POINT('',(0.,0.,-161.309616381393));
#414=CARTESIAN_POINT('',(4.30116853267934,0.,-161.309616381393));
#415=CARTESIAN_POINT('',(0.,0.,-161.2));
#416=CARTESIAN_POINT('',(0.,0.,-161.779462691786));
#417=CARTESIAN_POINT('',(4.6301584610165,0.,-161.779462691786));
#418=CARTESIAN_POINT('',(0.,0.,-161.779462691786));
#419=CARTESIAN_POINT('',(0.,0.,-162.8));
#420=CARTESIAN_POINT('',(4.63015846101651,0.,-162.8));
#421=CARTESIAN_POINT('',(0.,0.,-165.1));
#422=CARTESIAN_POINT('',(0.,0.,-163.1));
#423=CARTESIAN_POINT('',(4.5301584610165,0.,-163.1));
#424=CARTESIAN_POINT('',(0.,0.,-162.8));
#425=CARTESIAN_POINT('',(0.,0.,-164.6));
#426=CARTESIAN_POINT('',(4.58253961525413,0.,-164.6));
#427=CARTESIAN_POINT('',(0.,0.,-163.1));
#428=CARTESIAN_POINT('',(0.,0.,-164.6));
#429=MECHANICAL_DESIGN_GEOMETRIC_PRESENTATION_REPRESENTATION('',(#233,#234,
#235,#236,#237,#238,#239,#240),#430);
#430=(
GEOMETRIC_REPRESENTATION_CONTEXT(3)
GLOBAL_UNCERTAINTY_ASSIGNED_CONTEXT((#431))
GLOBAL_UNIT_ASSIGNED_CONTEXT((#437,#433,#432))
REPRESENTATION_CONTEXT('XE12.625J2-6.50-05','TOP_LEVEL_ASSEMBLY_PART')
);
#431=UNCERTAINTY_MEASURE_WITH_UNIT(LENGTH_MEASURE(2.E-5),#437,
'DISTANCE_ACCURACY_VALUE','Maximum Tolerance applied to model');
#432=(
NAMED_UNIT(*)
SI_UNIT($,.STERADIAN.)
SOLID_ANGLE_UNIT()
);
#433=(
CONVERSION_BASED_UNIT('DEGREE',#435)
NAMED_UNIT(#434)
PLANE_ANGLE_UNIT()
);
#434=DIMENSIONAL_EXPONENTS(0.,0.,0.,0.,0.,0.,0.);
#435=PLANE_ANGLE_MEASURE_WITH_UNIT(PLANE_ANGLE_MEASURE(0.0174532925),#436);
#436=(
NAMED_UNIT(*)
PLANE_ANGLE_UNIT()
SI_UNIT($,.RADIAN.)
);
#437=(
LENGTH_UNIT()
NAMED_UNIT(*)
SI_UNIT(.MILLI.,.METRE.)
);
ENDSEC;
END-ISO-10303-21;
