ISO-10303-21;
HEADER;
/* Generated by software containing ST-Developer
 * from STEP Tools, Inc. (www.steptools.com) 
 */
/* OPTION: using custom schema-name function */

FILE_DESCRIPTION(
/* description */ (''),
/* implementation_level */ '2;1');

FILE_NAME(
/* name */ 'XE20.750E1-3.00-00.0S_Basic.stp',
/* time_stamp */ '2022-07-29T15:36:49+05:00',
/* author */ (''),
/* organization */ (''),
/* preprocessor_version */ 'ST-DEVELOPER v16.7',
/* originating_system */ 'SIEMENS PLM Software NX 12.0',
/* authorisation */ '');

FILE_SCHEMA (('AUTOMOTIVE_DESIGN { 1 0 10303 214 3 1 1 1 }'));
ENDSEC;

DATA;
#10=CONSTRUCTIVE_GEOMETRY_REPRESENTATION_RELATIONSHIP(
'supplemental geometry','',#34,#11);
#11=CONSTRUCTIVE_GEOMETRY_REPRESENTATION('supplemental geometry',(#313,
#314,#315,#316),#530);
#12=GEOMETRICALLY_BOUNDED_WIREFRAME_SHAPE_REPRESENTATION(
'inco4FC439F6rwqo-None',(#35),#530);
#13=PROPERTY_DEFINITION_REPRESENTATION(#17,#15);
#14=PROPERTY_DEFINITION_REPRESENTATION(#18,#16);
#15=REPRESENTATION('',(#19),#530);
#16=REPRESENTATION('',(#20),#530);
#17=PROPERTY_DEFINITION('pmi validation property','',#25);
#18=PROPERTY_DEFINITION('pmi validation property','',#25);
#19=VALUE_REPRESENTATION_ITEM('number of annotations',COUNT_MEASURE(0.));
#20=VALUE_REPRESENTATION_ITEM('number of views',COUNT_MEASURE(0.));
#21=SHAPE_REPRESENTATION_RELATIONSHIP('None',
'relationship between inco4FC439F6rwqo-None and inco4FC439F6rwqo-None',
#34,#23);
#22=SHAPE_REPRESENTATION_RELATIONSHIP('None',
'relationship between inco4FC439F6rwqo-None and inco4FC439F6rwqo-None',
#34,#12);
#23=ADVANCED_BREP_SHAPE_REPRESENTATION('inco4FC439F6rwqo-None',(#41),#530);
#24=SHAPE_DEFINITION_REPRESENTATION(#25,#34);
#25=PRODUCT_DEFINITION_SHAPE('','',#26);
#26=PRODUCT_DEFINITION(' ','',#28,#27);
#27=PRODUCT_DEFINITION_CONTEXT('part definition',#33,'design');
#28=PRODUCT_DEFINITION_FORMATION_WITH_SPECIFIED_SOURCE(' ',' ',#30,
 .NOT_KNOWN.);
#29=PRODUCT_RELATED_PRODUCT_CATEGORY('part','',(#30));
#30=PRODUCT('inco4FC439F6rwqo','inco4FC439F6rwqo',' ',(#31));
#31=PRODUCT_CONTEXT(' ',#33,'mechanical');
#32=APPLICATION_PROTOCOL_DEFINITION('international standard',
'automotive_design',2010,#33);
#33=APPLICATION_CONTEXT(
'core data for automotive mechanical design processes');
#34=SHAPE_REPRESENTATION('inco4FC439F6rwqo-None',(#312),#530);
#35=GEOMETRIC_CURVE_SET('None',(#457,#458,#459));
#36=SURFACE_STYLE_USAGE(.BOTH.,#37);
#37=SURFACE_SIDE_STYLE('',(#38));
#38=SURFACE_STYLE_FILL_AREA(#39);
#39=FILL_AREA_STYLE('',(#40));
#40=FILL_AREA_STYLE_COLOUR('',#311);
#41=MANIFOLD_SOLID_BREP('NOCUT',#42);
#42=CLOSED_SHELL('',(#63,#64,#65,#66,#67,#68,#69,#70,#71,#72,#73,#74,#75,
#76,#77,#78,#79,#80,#81,#82,#83,#84));
#43=VERTEX_LOOP('',#224);
#44=FACE_OUTER_BOUND('',#143,.T.);
#45=PLANE('',#329);
#46=PLANE('',#331);
#47=CONICAL_SURFACE('',#323,9.22442216264001,20.1249366333887);
#48=CONICAL_SURFACE('',#332,8.52175,45.);
#49=CONICAL_SURFACE('',#334,0.,59.);
#50=CONICAL_SURFACE('',#340,4.95554072893323,80.0000000000007);
#51=CONICAL_SURFACE('',#344,5.77120549174436,69.9999999999998);
#52=CONICAL_SURFACE('',#348,5.28680918566302,5.99999999999999);
#53=CONICAL_SURFACE('',#350,6.2153,70.0000000000001);
#54=CONICAL_SURFACE('',#358,7.25769807627063,2.);
#55=CONICAL_SURFACE('',#359,7.32404753830495,46.9999999999999);
#56=TOROIDAL_SURFACE('',#321,9.12175,0.399999999999994);
#57=TOROIDAL_SURFACE('',#325,9.6,0.400000000000007);
#58=TOROIDAL_SURFACE('',#338,5.025,0.4);
#59=TOROIDAL_SURFACE('',#342,5.32657930542099,1.3);
#60=TOROIDAL_SURFACE('',#346,5.68461794381033,0.4);
#61=TOROIDAL_SURFACE('',#352,6.85769807627063,0.5);
#62=TOROIDAL_SURFACE('',#356,6.85769807627063,0.500000000000001);
#63=ADVANCED_FACE('FP_EH_SU1',(#89,#90),#85,.T.);
#64=ADVANCED_FACE('',(#91,#92),#56,.T.);
#65=ADVANCED_FACE('FP_EH_SU2',(#93,#94),#47,.T.);
#66=ADVANCED_FACE('',(#95,#96),#57,.F.);
#67=ADVANCED_FACE('FP_EH_SU3',(#97,#98),#86,.T.);
#68=ADVANCED_FACE('FP_EH_SU4',(#99,#100),#45,.T.);
#69=ADVANCED_FACE('',(#44),#46,.F.);
#70=ADVANCED_FACE('',(#101,#102),#48,.T.);
#71=ADVANCED_FACE('',(#103,#104),#49,.F.);
#72=ADVANCED_FACE('DCH3',(#105,#106),#87,.F.);
#73=ADVANCED_FACE('',(#107,#108),#58,.T.);
#74=ADVANCED_FACE('',(#109,#110),#50,.F.);
#75=ADVANCED_FACE('',(#111,#112),#59,.F.);
#76=ADVANCED_FACE('',(#113,#114),#51,.F.);
#77=ADVANCED_FACE('',(#115,#116),#60,.T.);
#78=ADVANCED_FACE('TSALN',(#117,#118),#52,.F.);
#79=ADVANCED_FACE('',(#119,#120),#53,.F.);
#80=ADVANCED_FACE('',(#121,#122),#61,.F.);
#81=ADVANCED_FACE('DCH2',(#123,#124),#88,.F.);
#82=ADVANCED_FACE('',(#125,#126),#62,.F.);
#83=ADVANCED_FACE('TSAN',(#127,#128),#54,.F.);
#84=ADVANCED_FACE('DCH4',(#129,#130),#55,.F.);
#85=CYLINDRICAL_SURFACE('',#319,9.52175);
#86=CYLINDRICAL_SURFACE('',#327,9.2);
#87=CYLINDRICAL_SURFACE('',#336,4.625);
#88=CYLINDRICAL_SURFACE('',#354,7.35769807627063);
#89=FACE_BOUND('',#131,.T.);
#90=FACE_BOUND('',#132,.T.);
#91=FACE_BOUND('',#133,.T.);
#92=FACE_BOUND('',#134,.T.);
#93=FACE_BOUND('',#135,.T.);
#94=FACE_BOUND('',#136,.T.);
#95=FACE_BOUND('',#137,.T.);
#96=FACE_BOUND('',#138,.T.);
#97=FACE_BOUND('',#139,.T.);
#98=FACE_BOUND('',#140,.T.);
#99=FACE_BOUND('',#141,.T.);
#100=FACE_BOUND('',#142,.T.);
#101=FACE_BOUND('',#144,.T.);
#102=FACE_BOUND('',#145,.T.);
#103=FACE_BOUND('',#146,.T.);
#104=FACE_BOUND('',#43,.T.);
#105=FACE_BOUND('',#147,.T.);
#106=FACE_BOUND('',#148,.T.);
#107=FACE_BOUND('',#149,.T.);
#108=FACE_BOUND('',#150,.T.);
#109=FACE_BOUND('',#151,.T.);
#110=FACE_BOUND('',#152,.T.);
#111=FACE_BOUND('',#153,.T.);
#112=FACE_BOUND('',#154,.T.);
#113=FACE_BOUND('',#155,.T.);
#114=FACE_BOUND('',#156,.T.);
#115=FACE_BOUND('',#157,.T.);
#116=FACE_BOUND('',#158,.T.);
#117=FACE_BOUND('',#159,.T.);
#118=FACE_BOUND('',#160,.T.);
#119=FACE_BOUND('',#161,.T.);
#120=FACE_BOUND('',#162,.T.);
#121=FACE_BOUND('',#163,.T.);
#122=FACE_BOUND('',#164,.T.);
#123=FACE_BOUND('',#165,.T.);
#124=FACE_BOUND('',#166,.T.);
#125=FACE_BOUND('',#167,.T.);
#126=FACE_BOUND('',#168,.T.);
#127=FACE_BOUND('',#169,.T.);
#128=FACE_BOUND('',#170,.T.);
#129=FACE_BOUND('',#171,.T.);
#130=FACE_BOUND('',#172,.T.);
#131=EDGE_LOOP('',(#173));
#132=EDGE_LOOP('',(#174));
#133=EDGE_LOOP('',(#175));
#134=EDGE_LOOP('',(#176));
#135=EDGE_LOOP('',(#177));
#136=EDGE_LOOP('',(#178));
#137=EDGE_LOOP('',(#179));
#138=EDGE_LOOP('',(#180));
#139=EDGE_LOOP('',(#181));
#140=EDGE_LOOP('',(#182));
#141=EDGE_LOOP('',(#183));
#142=EDGE_LOOP('',(#184));
#143=EDGE_LOOP('',(#185));
#144=EDGE_LOOP('',(#186));
#145=EDGE_LOOP('',(#187));
#146=EDGE_LOOP('',(#188));
#147=EDGE_LOOP('',(#189));
#148=EDGE_LOOP('',(#190));
#149=EDGE_LOOP('',(#191));
#150=EDGE_LOOP('',(#192));
#151=EDGE_LOOP('',(#193));
#152=EDGE_LOOP('',(#194));
#153=EDGE_LOOP('',(#195));
#154=EDGE_LOOP('',(#196));
#155=EDGE_LOOP('',(#197));
#156=EDGE_LOOP('',(#198));
#157=EDGE_LOOP('',(#199));
#158=EDGE_LOOP('',(#200));
#159=EDGE_LOOP('',(#201));
#160=EDGE_LOOP('',(#202));
#161=EDGE_LOOP('',(#203));
#162=EDGE_LOOP('',(#204));
#163=EDGE_LOOP('',(#205));
#164=EDGE_LOOP('',(#206));
#165=EDGE_LOOP('',(#207));
#166=EDGE_LOOP('',(#208));
#167=EDGE_LOOP('',(#209));
#168=EDGE_LOOP('',(#210));
#169=EDGE_LOOP('',(#211));
#170=EDGE_LOOP('',(#212));
#171=EDGE_LOOP('',(#213));
#172=EDGE_LOOP('',(#214));
#173=ORIENTED_EDGE('',*,*,#237,.F.);
#174=ORIENTED_EDGE('',*,*,#238,.T.);
#175=ORIENTED_EDGE('',*,*,#237,.T.);
#176=ORIENTED_EDGE('',*,*,#239,.F.);
#177=ORIENTED_EDGE('',*,*,#239,.T.);
#178=ORIENTED_EDGE('',*,*,#240,.F.);
#179=ORIENTED_EDGE('',*,*,#240,.T.);
#180=ORIENTED_EDGE('',*,*,#241,.F.);
#181=ORIENTED_EDGE('',*,*,#241,.T.);
#182=ORIENTED_EDGE('',*,*,#242,.F.);
#183=ORIENTED_EDGE('',*,*,#243,.F.);
#184=ORIENTED_EDGE('',*,*,#242,.T.);
#185=ORIENTED_EDGE('',*,*,#244,.F.);
#186=ORIENTED_EDGE('',*,*,#238,.F.);
#187=ORIENTED_EDGE('',*,*,#244,.T.);
#188=ORIENTED_EDGE('',*,*,#245,.T.);
#189=ORIENTED_EDGE('',*,*,#246,.T.);
#190=ORIENTED_EDGE('',*,*,#245,.F.);
#191=ORIENTED_EDGE('',*,*,#247,.T.);
#192=ORIENTED_EDGE('',*,*,#246,.F.);
#193=ORIENTED_EDGE('',*,*,#248,.T.);
#194=ORIENTED_EDGE('',*,*,#247,.F.);
#195=ORIENTED_EDGE('',*,*,#249,.T.);
#196=ORIENTED_EDGE('',*,*,#248,.F.);
#197=ORIENTED_EDGE('',*,*,#250,.T.);
#198=ORIENTED_EDGE('',*,*,#249,.F.);
#199=ORIENTED_EDGE('',*,*,#251,.T.);
#200=ORIENTED_EDGE('',*,*,#250,.F.);
#201=ORIENTED_EDGE('',*,*,#252,.T.);
#202=ORIENTED_EDGE('',*,*,#251,.F.);
#203=ORIENTED_EDGE('',*,*,#253,.T.);
#204=ORIENTED_EDGE('',*,*,#252,.F.);
#205=ORIENTED_EDGE('',*,*,#254,.T.);
#206=ORIENTED_EDGE('',*,*,#253,.F.);
#207=ORIENTED_EDGE('',*,*,#255,.T.);
#208=ORIENTED_EDGE('',*,*,#254,.F.);
#209=ORIENTED_EDGE('',*,*,#256,.T.);
#210=ORIENTED_EDGE('',*,*,#255,.F.);
#211=ORIENTED_EDGE('',*,*,#257,.T.);
#212=ORIENTED_EDGE('',*,*,#256,.F.);
#213=ORIENTED_EDGE('',*,*,#243,.T.);
#214=ORIENTED_EDGE('',*,*,#257,.F.);
#215=VERTEX_POINT('',#465);
#216=VERTEX_POINT('',#467);
#217=VERTEX_POINT('',#470);
#218=VERTEX_POINT('',#473);
#219=VERTEX_POINT('',#476);
#220=VERTEX_POINT('',#479);
#221=VERTEX_POINT('',#482);
#222=VERTEX_POINT('',#485);
#223=VERTEX_POINT('',#489);
#224=VERTEX_POINT('',#490);
#225=VERTEX_POINT('',#493);
#226=VERTEX_POINT('',#496);
#227=VERTEX_POINT('',#499);
#228=VERTEX_POINT('',#502);
#229=VERTEX_POINT('',#505);
#230=VERTEX_POINT('',#508);
#231=VERTEX_POINT('',#511);
#232=VERTEX_POINT('',#514);
#233=VERTEX_POINT('',#517);
#234=VERTEX_POINT('',#520);
#235=VERTEX_POINT('',#523);
#236=VERTEX_POINT('',#526);
#237=EDGE_CURVE('',#215,#215,#258,.T.);
#238=EDGE_CURVE('',#216,#216,#259,.T.);
#239=EDGE_CURVE('',#217,#217,#260,.T.);
#240=EDGE_CURVE('',#218,#218,#261,.T.);
#241=EDGE_CURVE('',#219,#219,#262,.T.);
#242=EDGE_CURVE('',#220,#220,#263,.T.);
#243=EDGE_CURVE('',#221,#221,#264,.T.);
#244=EDGE_CURVE('',#222,#222,#265,.T.);
#245=EDGE_CURVE('',#223,#223,#266,.T.);
#246=EDGE_CURVE('',#225,#225,#267,.T.);
#247=EDGE_CURVE('',#226,#226,#268,.T.);
#248=EDGE_CURVE('',#227,#227,#269,.T.);
#249=EDGE_CURVE('',#228,#228,#270,.T.);
#250=EDGE_CURVE('',#229,#229,#271,.T.);
#251=EDGE_CURVE('',#230,#230,#272,.T.);
#252=EDGE_CURVE('',#231,#231,#273,.T.);
#253=EDGE_CURVE('',#232,#232,#274,.T.);
#254=EDGE_CURVE('',#233,#233,#275,.T.);
#255=EDGE_CURVE('',#234,#234,#276,.T.);
#256=EDGE_CURVE('',#235,#235,#277,.T.);
#257=EDGE_CURVE('',#236,#236,#278,.T.);
#258=CIRCLE('',#317,9.52175);
#259=CIRCLE('',#318,9.52175);
#260=CIRCLE('',#320,9.49732783735998);
#261=CIRCLE('',#322,9.22442216264001);
#262=CIRCLE('',#324,9.2);
#263=CIRCLE('',#326,9.2);
#264=CIRCLE('',#328,7.96746876431976);
#265=CIRCLE('',#330,8.52175);
#266=CIRCLE('',#333,4.625);
#267=CIRCLE('',#335,4.625);
#268=CIRCLE('',#337,4.95554072893323);
#269=CIRCLE('',#339,5.552321936388);
#270=CIRCLE('',#341,5.77120549174436);
#271=CIRCLE('',#343,5.54780988648006);
#272=CIRCLE('',#345,5.28680918566302);
#273=CIRCLE('',#347,6.2153);
#274=CIRCLE('',#349,7.02870814793346);
#275=CIRCLE('',#351,7.35769807627063);
#276=CIRCLE('',#353,7.35769807627063);
#277=CIRCLE('',#355,7.25769807627063);
#278=CIRCLE('',#357,7.32404753830495);
#279=CURVE_STYLE('',#283,POSITIVE_LENGTH_MEASURE(0.13),#310);
#280=CURVE_STYLE('',#284,POSITIVE_LENGTH_MEASURE(0.18),#310);
#281=CURVE_STYLE('',#285,POSITIVE_LENGTH_MEASURE(0.18),#310);
#282=CURVE_STYLE('',#286,POSITIVE_LENGTH_MEASURE(0.18),#310);
#283=DRAUGHTING_PRE_DEFINED_CURVE_FONT('continuous');
#284=DRAUGHTING_PRE_DEFINED_CURVE_FONT('continuous');
#285=DRAUGHTING_PRE_DEFINED_CURVE_FONT('continuous');
#286=DRAUGHTING_PRE_DEFINED_CURVE_FONT('continuous');
#287=PRESENTATION_LAYER_ASSIGNMENT('1','Layer 1',(#457,#458,#459,#313,#314,
#315,#316,#41));
#288=STYLED_ITEM('',(#296),#457);
#289=STYLED_ITEM('',(#297),#458);
#290=STYLED_ITEM('',(#298),#459);
#291=STYLED_ITEM('',(#299),#313);
#292=STYLED_ITEM('',(#300),#314);
#293=STYLED_ITEM('',(#301),#315);
#294=STYLED_ITEM('',(#302),#316);
#295=STYLED_ITEM('',(#303),#41);
#296=PRESENTATION_STYLE_ASSIGNMENT((#304));
#297=PRESENTATION_STYLE_ASSIGNMENT((#305));
#298=PRESENTATION_STYLE_ASSIGNMENT((#306));
#299=PRESENTATION_STYLE_ASSIGNMENT((#279));
#300=PRESENTATION_STYLE_ASSIGNMENT((#280));
#301=PRESENTATION_STYLE_ASSIGNMENT((#281));
#302=PRESENTATION_STYLE_ASSIGNMENT((#282));
#303=PRESENTATION_STYLE_ASSIGNMENT((#36));
#304=POINT_STYLE('',#307,POSITIVE_LENGTH_MEASURE(3.),#310);
#305=POINT_STYLE('',#308,POSITIVE_LENGTH_MEASURE(3.),#310);
#306=POINT_STYLE('',#309,POSITIVE_LENGTH_MEASURE(3.),#310);
#307=PRE_DEFINED_POINT_MARKER_SYMBOL('plus');
#308=PRE_DEFINED_POINT_MARKER_SYMBOL('plus');
#309=PRE_DEFINED_POINT_MARKER_SYMBOL('plus');
#310=COLOUR_RGB('Strong Stone',0.576470588235294,0.54508278019379,0.392156862745098);
#311=COLOUR_RGB('Medium Gray',0.490196078431373,0.490196078431373,0.490196078431373);
#312=AXIS2_PLACEMENT_3D('',#456,#360,#361);
#313=AXIS2_PLACEMENT_3D('',#460,#362,#363);
#314=AXIS2_PLACEMENT_3D('PCS',#461,#364,#365);
#315=AXIS2_PLACEMENT_3D('MCS',#462,#366,#367);
#316=AXIS2_PLACEMENT_3D('CSW',#463,#368,#369);
#317=AXIS2_PLACEMENT_3D('',#464,#370,#371);
#318=AXIS2_PLACEMENT_3D('',#466,#372,#373);
#319=AXIS2_PLACEMENT_3D('',#468,#374,#375);
#320=AXIS2_PLACEMENT_3D('',#469,#376,#377);
#321=AXIS2_PLACEMENT_3D('',#471,#378,#379);
#322=AXIS2_PLACEMENT_3D('',#472,#380,#381);
#323=AXIS2_PLACEMENT_3D('',#474,#382,#383);
#324=AXIS2_PLACEMENT_3D('',#475,#384,#385);
#325=AXIS2_PLACEMENT_3D('',#477,#386,#387);
#326=AXIS2_PLACEMENT_3D('',#478,#388,#389);
#327=AXIS2_PLACEMENT_3D('',#480,#390,#391);
#328=AXIS2_PLACEMENT_3D('',#481,#392,#393);
#329=AXIS2_PLACEMENT_3D('',#483,#394,#395);
#330=AXIS2_PLACEMENT_3D('',#484,#396,#397);
#331=AXIS2_PLACEMENT_3D('',#486,#398,#399);
#332=AXIS2_PLACEMENT_3D('',#487,#400,#401);
#333=AXIS2_PLACEMENT_3D('',#488,#402,#403);
#334=AXIS2_PLACEMENT_3D('',#491,#404,#405);
#335=AXIS2_PLACEMENT_3D('',#492,#406,#407);
#336=AXIS2_PLACEMENT_3D('',#494,#408,#409);
#337=AXIS2_PLACEMENT_3D('',#495,#410,#411);
#338=AXIS2_PLACEMENT_3D('',#497,#412,#413);
#339=AXIS2_PLACEMENT_3D('',#498,#414,#415);
#340=AXIS2_PLACEMENT_3D('',#500,#416,#417);
#341=AXIS2_PLACEMENT_3D('',#501,#418,#419);
#342=AXIS2_PLACEMENT_3D('',#503,#420,#421);
#343=AXIS2_PLACEMENT_3D('',#504,#422,#423);
#344=AXIS2_PLACEMENT_3D('',#506,#424,#425);
#345=AXIS2_PLACEMENT_3D('',#507,#426,#427);
#346=AXIS2_PLACEMENT_3D('',#509,#428,#429);
#347=AXIS2_PLACEMENT_3D('',#510,#430,#431);
#348=AXIS2_PLACEMENT_3D('',#512,#432,#433);
#349=AXIS2_PLACEMENT_3D('',#513,#434,#435);
#350=AXIS2_PLACEMENT_3D('',#515,#436,#437);
#351=AXIS2_PLACEMENT_3D('',#516,#438,#439);
#352=AXIS2_PLACEMENT_3D('',#518,#440,#441);
#353=AXIS2_PLACEMENT_3D('',#519,#442,#443);
#354=AXIS2_PLACEMENT_3D('',#521,#444,#445);
#355=AXIS2_PLACEMENT_3D('',#522,#446,#447);
#356=AXIS2_PLACEMENT_3D('',#524,#448,#449);
#357=AXIS2_PLACEMENT_3D('',#525,#450,#451);
#358=AXIS2_PLACEMENT_3D('',#527,#452,#453);
#359=AXIS2_PLACEMENT_3D('',#528,#454,#455);
#360=DIRECTION('',(0.,0.,1.));
#361=DIRECTION('',(1.,0.,0.));
#362=DIRECTION('',(0.,0.,1.));
#363=DIRECTION('',(1.,0.,0.));
#364=DIRECTION('',(0.,0.,1.));
#365=DIRECTION('',(1.,0.,0.));
#366=DIRECTION('',(0.,0.,1.));
#367=DIRECTION('',(1.,0.,0.));
#368=DIRECTION('',(0.,0.,1.));
#369=DIRECTION('',(1.,0.,0.));
#370=DIRECTION('',(0.,0.,-1.));
#371=DIRECTION('',(1.,0.,0.));
#372=DIRECTION('',(0.,0.,-1.));
#373=DIRECTION('',(1.,0.,0.));
#374=DIRECTION('',(0.,0.,-1.));
#375=DIRECTION('',(1.,0.,0.));
#376=DIRECTION('',(0.,0.,-1.));
#377=DIRECTION('',(1.,0.,0.));
#378=DIRECTION('',(0.,0.,-1.));
#379=DIRECTION('',(1.,0.,0.));
#380=DIRECTION('',(0.,0.,-1.));
#381=DIRECTION('',(1.,0.,0.));
#382=DIRECTION('',(0.,0.,1.));
#383=DIRECTION('',(-1.,0.,0.));
#384=DIRECTION('',(0.,0.,-1.));
#385=DIRECTION('',(1.,0.,0.));
#386=DIRECTION('',(0.,0.,-1.));
#387=DIRECTION('',(1.,0.,0.));
#388=DIRECTION('',(0.,0.,-1.));
#389=DIRECTION('',(1.,0.,0.));
#390=DIRECTION('',(0.,0.,-1.));
#391=DIRECTION('',(1.,0.,0.));
#392=DIRECTION('',(0.,0.,-1.));
#393=DIRECTION('',(1.,0.,0.));
#394=DIRECTION('',(0.,0.,-1.));
#395=DIRECTION('',(1.,0.,0.));
#396=DIRECTION('',(0.,0.,-1.));
#397=DIRECTION('',(1.,0.,0.));
#398=DIRECTION('',(0.,0.,-1.));
#399=DIRECTION('',(1.,0.,0.));
#400=DIRECTION('',(0.,0.,-1.));
#401=DIRECTION('',(1.,0.,0.));
#402=DIRECTION('',(0.,0.,-1.));
#403=DIRECTION('',(1.,0.,0.));
#404=DIRECTION('',(0.,0.,-1.));
#405=DIRECTION('',(1.,0.,2.08465404323413E-17));
#406=DIRECTION('',(0.,0.,-1.));
#407=DIRECTION('',(1.,0.,0.));
#408=DIRECTION('',(0.,0.,-1.));
#409=DIRECTION('',(1.,0.,0.));
#410=DIRECTION('',(0.,0.,-1.));
#411=DIRECTION('',(1.,0.,0.));
#412=DIRECTION('',(0.,0.,-1.));
#413=DIRECTION('',(1.,0.,0.));
#414=DIRECTION('',(0.,0.,-1.));
#415=DIRECTION('',(1.,0.,0.));
#416=DIRECTION('',(0.,0.,-1.));
#417=DIRECTION('',(1.,0.,6.11223021819069E-18));
#418=DIRECTION('',(0.,0.,-1.));
#419=DIRECTION('',(1.,0.,0.));
#420=DIRECTION('',(0.,0.,-1.));
#421=DIRECTION('',(1.,0.,0.));
#422=DIRECTION('',(0.,0.,-1.));
#423=DIRECTION('',(1.,0.,0.));
#424=DIRECTION('',(0.,0.,1.));
#425=DIRECTION('',(-1.,0.,5.0405138432004E-18));
#426=DIRECTION('',(0.,0.,-1.));
#427=DIRECTION('',(1.,0.,0.));
#428=DIRECTION('',(0.,0.,-1.));
#429=DIRECTION('',(1.,0.,0.));
#430=DIRECTION('',(0.,0.,-1.));
#431=DIRECTION('',(1.,0.,0.));
#432=DIRECTION('',(0.,0.,-1.));
#433=DIRECTION('',(1.,0.,-2.51429595159448E-16));
#434=DIRECTION('',(0.,0.,-1.));
#435=DIRECTION('',(1.,0.,0.));
#436=DIRECTION('',(0.,0.,-1.));
#437=DIRECTION('',(1.,0.,-1.00794018953305E-17));
#438=DIRECTION('',(0.,0.,-1.));
#439=DIRECTION('',(1.,0.,0.));
#440=DIRECTION('',(0.,0.,-1.));
#441=DIRECTION('',(1.,0.,0.));
#442=DIRECTION('',(0.,0.,-1.));
#443=DIRECTION('',(1.,0.,0.));
#444=DIRECTION('',(0.,0.,-1.));
#445=DIRECTION('',(1.,0.,0.));
#446=DIRECTION('',(0.,0.,-1.));
#447=DIRECTION('',(1.,0.,0.));
#448=DIRECTION('',(0.,0.,-1.));
#449=DIRECTION('',(1.,0.,0.));
#450=DIRECTION('',(0.,0.,-1.));
#451=DIRECTION('',(1.,0.,0.));
#452=DIRECTION('',(0.,0.,-1.));
#453=DIRECTION('',(1.,0.,-2.30317790702194E-15));
#454=DIRECTION('',(0.,0.,-1.));
#455=DIRECTION('',(1.,0.,-1.02827681009094E-16));
#456=CARTESIAN_POINT('',(0.,0.,0.));
#457=CARTESIAN_POINT('',(0.,0.,0.));
#458=CARTESIAN_POINT('',(0.,0.,-50.));
#459=CARTESIAN_POINT('',(0.,0.,-76.2));
#460=CARTESIAN_POINT('',(0.,0.,0.));
#461=CARTESIAN_POINT('',(0.,0.,0.));
#462=CARTESIAN_POINT('',(0.,0.,-50.));
#463=CARTESIAN_POINT('',(0.,0.,-76.2));
#464=CARTESIAN_POINT('',(0.,0.,-68.83));
#465=CARTESIAN_POINT('',(9.52175,0.,-68.83));
#466=CARTESIAN_POINT('',(0.,0.,-1.));
#467=CARTESIAN_POINT('',(9.52175,0.,-1.));
#468=CARTESIAN_POINT('',(0.,0.,70.5183697733042));
#469=CARTESIAN_POINT('',(0.,0.,-68.9676273522378));
#470=CARTESIAN_POINT('',(9.49732783735998,0.,-68.9676273522378));
#471=CARTESIAN_POINT('',(0.,0.,-68.83));
#472=CARTESIAN_POINT('',(0.,0.,-69.7123726477622));
#473=CARTESIAN_POINT('',(9.22442216264001,0.,-69.7123726477622));
#474=CARTESIAN_POINT('',(0.,0.,-69.7123726477622));
#475=CARTESIAN_POINT('',(0.,0.,-69.85));
#476=CARTESIAN_POINT('',(9.2,0.,-69.85));
#477=CARTESIAN_POINT('',(0.,0.,-69.85));
#478=CARTESIAN_POINT('',(0.,0.,-76.2));
#479=CARTESIAN_POINT('',(9.2,0.,-76.2));
#480=CARTESIAN_POINT('',(0.,0.,70.5183697733042));
#481=CARTESIAN_POINT('',(0.,0.,-76.2));
#482=CARTESIAN_POINT('',(7.96746876431976,0.,-76.2));
#483=CARTESIAN_POINT('',(1.06581410364015E-14,0.,-76.2));
#484=CARTESIAN_POINT('',(0.,0.,0.));
#485=CARTESIAN_POINT('',(8.52175,0.,0.));
#486=CARTESIAN_POINT('',(0.,0.,0.));
#487=CARTESIAN_POINT('',(0.,0.,0.));
#488=CARTESIAN_POINT('',(0.,0.,-54.7));
#489=CARTESIAN_POINT('',(4.625,0.,-54.7));
#490=CARTESIAN_POINT('',(0.,0.,-51.9210196369975));
#491=CARTESIAN_POINT('',(0.,0.,-51.9210196369975));
#492=CARTESIAN_POINT('',(0.,0.,-58.7));
#493=CARTESIAN_POINT('',(4.625,0.,-58.7));
#494=CARTESIAN_POINT('',(0.,0.,-76.2));
#495=CARTESIAN_POINT('',(0.,0.,-59.0939231012049));
#496=CARTESIAN_POINT('',(4.95554072893323,0.,-59.0939231012049));
#497=CARTESIAN_POINT('',(0.,0.,-58.7));
#498=CARTESIAN_POINT('',(0.,0.,-59.1991517296589));
#499=CARTESIAN_POINT('',(5.552321936388,0.,-59.1991517296589));
#500=CARTESIAN_POINT('',(0.,0.,-59.0939231012049));
#501=CARTESIAN_POINT('',(0.,0.,-61.7010022155965));
#502=CARTESIAN_POINT('',(5.77120549174436,0.,-61.7010022155965));
#503=CARTESIAN_POINT('',(0.,0.,-60.4794018085748));
#504=CARTESIAN_POINT('',(0.,0.,-61.7823115663786));
#505=CARTESIAN_POINT('',(5.54780988648006,0.,-61.7823115663786));
#506=CARTESIAN_POINT('',(0.,0.,-61.7010022155965));
#507=CARTESIAN_POINT('',(0.,0.,-62.2));
#508=CARTESIAN_POINT('',(5.28680918566302,0.,-62.2));
#509=CARTESIAN_POINT('',(0.,0.,-62.1581886146929));
#510=CARTESIAN_POINT('',(0.,0.,-71.034));
#511=CARTESIAN_POINT('',(6.2153,0.,-71.034));
#512=CARTESIAN_POINT('',(0.,0.,-62.2));
#513=CARTESIAN_POINT('',(0.,0.,-71.3300563541574));
#514=CARTESIAN_POINT('',(7.02870814793346,0.,-71.3300563541574));
#515=CARTESIAN_POINT('',(0.,0.,-71.034));
#516=CARTESIAN_POINT('',(0.,0.,-71.7999026645503));
#517=CARTESIAN_POINT('',(7.35769807627063,0.,-71.7999026645503));
#518=CARTESIAN_POINT('',(0.,0.,-71.7999026645503));
#519=CARTESIAN_POINT('',(0.,0.,-73.4));
#520=CARTESIAN_POINT('',(7.35769807627063,0.,-73.4));
#521=CARTESIAN_POINT('',(0.,0.,-76.2));
#522=CARTESIAN_POINT('',(0.,0.,-73.7));
#523=CARTESIAN_POINT('',(7.25769807627063,0.,-73.7));
#524=CARTESIAN_POINT('',(0.,0.,-73.4));
#525=CARTESIAN_POINT('',(0.,0.,-75.6));
#526=CARTESIAN_POINT('',(7.32404753830495,0.,-75.6));
#527=CARTESIAN_POINT('',(0.,0.,-73.7));
#528=CARTESIAN_POINT('',(0.,0.,-75.6));
#529=MECHANICAL_DESIGN_GEOMETRIC_PRESENTATION_REPRESENTATION('',(#288,#289,
#290,#291,#292,#293,#294,#295),#530);
#530=(
GEOMETRIC_REPRESENTATION_CONTEXT(3)
GLOBAL_UNCERTAINTY_ASSIGNED_CONTEXT((#531))
GLOBAL_UNIT_ASSIGNED_CONTEXT((#537,#533,#532))
REPRESENTATION_CONTEXT('XE20.750E1-3.00-00','TOP_LEVEL_ASSEMBLY_PART')
);
#531=UNCERTAINTY_MEASURE_WITH_UNIT(LENGTH_MEASURE(2.E-5),#537,
'DISTANCE_ACCURACY_VALUE','Maximum Tolerance applied to model');
#532=(
NAMED_UNIT(*)
SI_UNIT($,.STERADIAN.)
SOLID_ANGLE_UNIT()
);
#533=(
CONVERSION_BASED_UNIT('DEGREE',#535)
NAMED_UNIT(#534)
PLANE_ANGLE_UNIT()
);
#534=DIMENSIONAL_EXPONENTS(0.,0.,0.,0.,0.,0.,0.);
#535=PLANE_ANGLE_MEASURE_WITH_UNIT(PLANE_ANGLE_MEASURE(0.0174532925),#536);
#536=(
NAMED_UNIT(*)
PLANE_ANGLE_UNIT()
SI_UNIT($,.RADIAN.)
);
#537=(
LENGTH_UNIT()
NAMED_UNIT(*)
SI_UNIT(.MILLI.,.METRE.)
);
ENDSEC;
END-ISO-10303-21;
