ISO-10303-21;
HEADER;
/* Generated by software containing ST-Developer
 * from STEP Tools, Inc. (www.steptools.com) 
 */
/* OPTION: using custom schema-name function */

FILE_DESCRIPTION(
/* description */ (''),
/* implementation_level */ '2;1');

FILE_NAME(
/* name */ 'XE16.625E1-3.00-00.0S_Basic.stp',
/* time_stamp */ '2022-07-29T15:26:35+06:00',
/* author */ (''),
/* organization */ (''),
/* preprocessor_version */ 'ST-DEVELOPER v16.7',
/* originating_system */ 'SIEMENS PLM Software NX 12.0',
/* authorisation */ '');

FILE_SCHEMA (('AUTOMOTIVE_DESIGN { 1 0 10303 214 3 1 1 1 }'));
ENDSEC;

DATA;
#10=CONSTRUCTIVE_GEOMETRY_REPRESENTATION_RELATIONSHIP(
'supplemental geometry','',#34,#11);
#11=CONSTRUCTIVE_GEOMETRY_REPRESENTATION('supplemental geometry',(#291,
#292,#293,#294),#490);
#12=GEOMETRICALLY_BOUNDED_WIREFRAME_SHAPE_REPRESENTATION(
'inco4FC439F6rwos-None',(#35),#490);
#13=PROPERTY_DEFINITION_REPRESENTATION(#17,#15);
#14=PROPERTY_DEFINITION_REPRESENTATION(#18,#16);
#15=REPRESENTATION('',(#19),#490);
#16=REPRESENTATION('',(#20),#490);
#17=PROPERTY_DEFINITION('pmi validation property','',#25);
#18=PROPERTY_DEFINITION('pmi validation property','',#25);
#19=VALUE_REPRESENTATION_ITEM('number of annotations',COUNT_MEASURE(0.));
#20=VALUE_REPRESENTATION_ITEM('number of views',COUNT_MEASURE(0.));
#21=SHAPE_REPRESENTATION_RELATIONSHIP('None',
'relationship between inco4FC439F6rwos-None and inco4FC439F6rwos-None',
#34,#23);
#22=SHAPE_REPRESENTATION_RELATIONSHIP('None',
'relationship between inco4FC439F6rwos-None and inco4FC439F6rwos-None',
#34,#12);
#23=ADVANCED_BREP_SHAPE_REPRESENTATION('inco4FC439F6rwos-None',(#41),#490);
#24=SHAPE_DEFINITION_REPRESENTATION(#25,#34);
#25=PRODUCT_DEFINITION_SHAPE('','',#26);
#26=PRODUCT_DEFINITION(' ','',#28,#27);
#27=PRODUCT_DEFINITION_CONTEXT('part definition',#33,'design');
#28=PRODUCT_DEFINITION_FORMATION_WITH_SPECIFIED_SOURCE(' ',' ',#30,
 .NOT_KNOWN.);
#29=PRODUCT_RELATED_PRODUCT_CATEGORY('part','',(#30));
#30=PRODUCT('inco4FC439F6rwos','inco4FC439F6rwos',' ',(#31));
#31=PRODUCT_CONTEXT(' ',#33,'mechanical');
#32=APPLICATION_PROTOCOL_DEFINITION('international standard',
'automotive_design',2010,#33);
#33=APPLICATION_CONTEXT(
'core data for automotive mechanical design processes');
#34=SHAPE_REPRESENTATION('inco4FC439F6rwos-None',(#290),#490);
#35=GEOMETRIC_CURVE_SET('None',(#423,#424,#425));
#36=SURFACE_STYLE_USAGE(.BOTH.,#37);
#37=SURFACE_SIDE_STYLE('',(#38));
#38=SURFACE_STYLE_FILL_AREA(#39);
#39=FILL_AREA_STYLE('',(#40));
#40=FILL_AREA_STYLE_COLOUR('',#289);
#41=MANIFOLD_SOLID_BREP('NOCUT',#42);
#42=CLOSED_SHELL('',(#61,#62,#63,#64,#65,#66,#67,#68,#69,#70,#71,#72,#73,
#74,#75,#76,#77,#78,#79,#80));
#43=VERTEX_LOOP('',#207);
#44=FACE_OUTER_BOUND('',#135,.T.);
#45=PLANE('',#307);
#46=PLANE('',#309);
#47=CONICAL_SURFACE('',#301,7.71243155755054,14.3219335344818);
#48=CONICAL_SURFACE('',#310,6.93475,45.);
#49=CONICAL_SURFACE('',#312,3.525,59.);
#50=CONICAL_SURFACE('',#322,4.68,5.99999999999999);
#51=CONICAL_SURFACE('',#324,5.2203190359301,69.7308316113804);
#52=CONICAL_SURFACE('',#332,5.69904753830495,1.99999999999998);
#53=CONICAL_SURFACE('',#333,6.34246876431976,47.);
#54=TOROIDAL_SURFACE('',#299,7.53475,0.39999999999999);
#55=TOROIDAL_SURFACE('',#303,8.1,0.400000000000013);
#56=TOROIDAL_SURFACE('',#316,3.725,0.2);
#57=TOROIDAL_SURFACE('',#318,3.49542994468815,1.);
#58=TOROIDAL_SURFACE('',#320,4.41485840804242,0.6);
#59=TOROIDAL_SURFACE('',#326,4.94317430711815,0.8);
#60=TOROIDAL_SURFACE('',#330,5.24317430711815,0.5);
#61=ADVANCED_FACE('FP_EH_SU1',(#85,#86),#81,.T.);
#62=ADVANCED_FACE('',(#87,#88),#54,.T.);
#63=ADVANCED_FACE('FP_EH_SU2',(#89,#90),#47,.T.);
#64=ADVANCED_FACE('',(#91,#92),#55,.F.);
#65=ADVANCED_FACE('FP_EH_SU3',(#93,#94),#82,.T.);
#66=ADVANCED_FACE('FP_EH_SU4',(#95,#96),#45,.T.);
#67=ADVANCED_FACE('',(#44),#46,.F.);
#68=ADVANCED_FACE('',(#97,#98),#48,.T.);
#69=ADVANCED_FACE('',(#99,#100),#49,.F.);
#70=ADVANCED_FACE('DCH3',(#101,#102),#83,.F.);
#71=ADVANCED_FACE('',(#103,#104),#56,.T.);
#72=ADVANCED_FACE('',(#105,#106),#57,.F.);
#73=ADVANCED_FACE('',(#107,#108),#58,.T.);
#74=ADVANCED_FACE('TSALN',(#109,#110),#50,.F.);
#75=ADVANCED_FACE('',(#111,#112),#51,.F.);
#76=ADVANCED_FACE('',(#113,#114),#59,.F.);
#77=ADVANCED_FACE('DCH2',(#115,#116),#84,.F.);
#78=ADVANCED_FACE('',(#117,#118),#60,.F.);
#79=ADVANCED_FACE('TSAN',(#119,#120),#52,.F.);
#80=ADVANCED_FACE('DCH4',(#121,#122),#53,.F.);
#81=CYLINDRICAL_SURFACE('',#297,7.93475);
#82=CYLINDRICAL_SURFACE('',#305,7.7);
#83=CYLINDRICAL_SURFACE('',#314,3.525);
#84=CYLINDRICAL_SURFACE('',#328,5.74317430711815);
#85=FACE_BOUND('',#123,.T.);
#86=FACE_BOUND('',#124,.T.);
#87=FACE_BOUND('',#125,.T.);
#88=FACE_BOUND('',#126,.T.);
#89=FACE_BOUND('',#127,.T.);
#90=FACE_BOUND('',#128,.T.);
#91=FACE_BOUND('',#129,.T.);
#92=FACE_BOUND('',#130,.T.);
#93=FACE_BOUND('',#131,.T.);
#94=FACE_BOUND('',#132,.T.);
#95=FACE_BOUND('',#133,.T.);
#96=FACE_BOUND('',#134,.T.);
#97=FACE_BOUND('',#136,.T.);
#98=FACE_BOUND('',#137,.T.);
#99=FACE_BOUND('',#43,.T.);
#100=FACE_BOUND('',#138,.T.);
#101=FACE_BOUND('',#139,.T.);
#102=FACE_BOUND('',#140,.T.);
#103=FACE_BOUND('',#141,.T.);
#104=FACE_BOUND('',#142,.T.);
#105=FACE_BOUND('',#143,.T.);
#106=FACE_BOUND('',#144,.T.);
#107=FACE_BOUND('',#145,.T.);
#108=FACE_BOUND('',#146,.T.);
#109=FACE_BOUND('',#147,.T.);
#110=FACE_BOUND('',#148,.T.);
#111=FACE_BOUND('',#149,.T.);
#112=FACE_BOUND('',#150,.T.);
#113=FACE_BOUND('',#151,.T.);
#114=FACE_BOUND('',#152,.T.);
#115=FACE_BOUND('',#153,.T.);
#116=FACE_BOUND('',#154,.T.);
#117=FACE_BOUND('',#155,.T.);
#118=FACE_BOUND('',#156,.T.);
#119=FACE_BOUND('',#157,.T.);
#120=FACE_BOUND('',#158,.T.);
#121=FACE_BOUND('',#159,.T.);
#122=FACE_BOUND('',#160,.T.);
#123=EDGE_LOOP('',(#161));
#124=EDGE_LOOP('',(#162));
#125=EDGE_LOOP('',(#163));
#126=EDGE_LOOP('',(#164));
#127=EDGE_LOOP('',(#165));
#128=EDGE_LOOP('',(#166));
#129=EDGE_LOOP('',(#167));
#130=EDGE_LOOP('',(#168));
#131=EDGE_LOOP('',(#169));
#132=EDGE_LOOP('',(#170));
#133=EDGE_LOOP('',(#171));
#134=EDGE_LOOP('',(#172));
#135=EDGE_LOOP('',(#173));
#136=EDGE_LOOP('',(#174));
#137=EDGE_LOOP('',(#175));
#138=EDGE_LOOP('',(#176));
#139=EDGE_LOOP('',(#177));
#140=EDGE_LOOP('',(#178));
#141=EDGE_LOOP('',(#179));
#142=EDGE_LOOP('',(#180));
#143=EDGE_LOOP('',(#181));
#144=EDGE_LOOP('',(#182));
#145=EDGE_LOOP('',(#183));
#146=EDGE_LOOP('',(#184));
#147=EDGE_LOOP('',(#185));
#148=EDGE_LOOP('',(#186));
#149=EDGE_LOOP('',(#187));
#150=EDGE_LOOP('',(#188));
#151=EDGE_LOOP('',(#189));
#152=EDGE_LOOP('',(#190));
#153=EDGE_LOOP('',(#191));
#154=EDGE_LOOP('',(#192));
#155=EDGE_LOOP('',(#193));
#156=EDGE_LOOP('',(#194));
#157=EDGE_LOOP('',(#195));
#158=EDGE_LOOP('',(#196));
#159=EDGE_LOOP('',(#197));
#160=EDGE_LOOP('',(#198));
#161=ORIENTED_EDGE('',*,*,#219,.F.);
#162=ORIENTED_EDGE('',*,*,#220,.T.);
#163=ORIENTED_EDGE('',*,*,#219,.T.);
#164=ORIENTED_EDGE('',*,*,#221,.F.);
#165=ORIENTED_EDGE('',*,*,#221,.T.);
#166=ORIENTED_EDGE('',*,*,#222,.F.);
#167=ORIENTED_EDGE('',*,*,#222,.T.);
#168=ORIENTED_EDGE('',*,*,#223,.F.);
#169=ORIENTED_EDGE('',*,*,#223,.T.);
#170=ORIENTED_EDGE('',*,*,#224,.F.);
#171=ORIENTED_EDGE('',*,*,#225,.F.);
#172=ORIENTED_EDGE('',*,*,#224,.T.);
#173=ORIENTED_EDGE('',*,*,#226,.F.);
#174=ORIENTED_EDGE('',*,*,#220,.F.);
#175=ORIENTED_EDGE('',*,*,#226,.T.);
#176=ORIENTED_EDGE('',*,*,#227,.T.);
#177=ORIENTED_EDGE('',*,*,#227,.F.);
#178=ORIENTED_EDGE('',*,*,#228,.T.);
#179=ORIENTED_EDGE('',*,*,#228,.F.);
#180=ORIENTED_EDGE('',*,*,#229,.T.);
#181=ORIENTED_EDGE('',*,*,#229,.F.);
#182=ORIENTED_EDGE('',*,*,#230,.T.);
#183=ORIENTED_EDGE('',*,*,#230,.F.);
#184=ORIENTED_EDGE('',*,*,#231,.T.);
#185=ORIENTED_EDGE('',*,*,#231,.F.);
#186=ORIENTED_EDGE('',*,*,#232,.T.);
#187=ORIENTED_EDGE('',*,*,#232,.F.);
#188=ORIENTED_EDGE('',*,*,#233,.T.);
#189=ORIENTED_EDGE('',*,*,#233,.F.);
#190=ORIENTED_EDGE('',*,*,#234,.T.);
#191=ORIENTED_EDGE('',*,*,#234,.F.);
#192=ORIENTED_EDGE('',*,*,#235,.T.);
#193=ORIENTED_EDGE('',*,*,#235,.F.);
#194=ORIENTED_EDGE('',*,*,#236,.T.);
#195=ORIENTED_EDGE('',*,*,#236,.F.);
#196=ORIENTED_EDGE('',*,*,#237,.T.);
#197=ORIENTED_EDGE('',*,*,#237,.F.);
#198=ORIENTED_EDGE('',*,*,#225,.T.);
#199=VERTEX_POINT('',#431);
#200=VERTEX_POINT('',#433);
#201=VERTEX_POINT('',#436);
#202=VERTEX_POINT('',#439);
#203=VERTEX_POINT('',#442);
#204=VERTEX_POINT('',#445);
#205=VERTEX_POINT('',#448);
#206=VERTEX_POINT('',#451);
#207=VERTEX_POINT('',#454);
#208=VERTEX_POINT('',#456);
#209=VERTEX_POINT('',#459);
#210=VERTEX_POINT('',#462);
#211=VERTEX_POINT('',#465);
#212=VERTEX_POINT('',#468);
#213=VERTEX_POINT('',#471);
#214=VERTEX_POINT('',#474);
#215=VERTEX_POINT('',#477);
#216=VERTEX_POINT('',#480);
#217=VERTEX_POINT('',#483);
#218=VERTEX_POINT('',#486);
#219=EDGE_CURVE('',#199,#199,#238,.T.);
#220=EDGE_CURVE('',#200,#200,#239,.T.);
#221=EDGE_CURVE('',#201,#201,#240,.T.);
#222=EDGE_CURVE('',#202,#202,#241,.T.);
#223=EDGE_CURVE('',#203,#203,#242,.T.);
#224=EDGE_CURVE('',#204,#204,#243,.T.);
#225=EDGE_CURVE('',#205,#205,#244,.T.);
#226=EDGE_CURVE('',#206,#206,#245,.T.);
#227=EDGE_CURVE('',#208,#208,#246,.T.);
#228=EDGE_CURVE('',#209,#209,#247,.T.);
#229=EDGE_CURVE('',#210,#210,#248,.T.);
#230=EDGE_CURVE('',#211,#211,#249,.T.);
#231=EDGE_CURVE('',#212,#212,#250,.T.);
#232=EDGE_CURVE('',#213,#213,#251,.T.);
#233=EDGE_CURVE('',#214,#214,#252,.T.);
#234=EDGE_CURVE('',#215,#215,#253,.T.);
#235=EDGE_CURVE('',#216,#216,#254,.T.);
#236=EDGE_CURVE('',#217,#217,#255,.T.);
#237=EDGE_CURVE('',#218,#218,#256,.T.);
#238=CIRCLE('',#295,7.93474999999999);
#239=CIRCLE('',#296,7.93475);
#240=CIRCLE('',#298,7.92231844244944);
#241=CIRCLE('',#300,7.71243155755054);
#242=CIRCLE('',#302,7.7);
#243=CIRCLE('',#304,7.7);
#244=CIRCLE('',#306,6.34246876431976);
#245=CIRCLE('',#308,6.93475);
#246=CIRCLE('',#311,3.525);
#247=CIRCLE('',#313,3.525);
#248=CIRCLE('',#315,3.68673832411469);
#249=CIRCLE('',#317,4.07007273428457);
#250=CIRCLE('',#319,3.81814527082145);
#251=CIRCLE('',#321,4.68);
#252=CIRCLE('',#323,5.2203190359301);
#253=CIRCLE('',#325,5.74317430711815);
#254=CIRCLE('',#327,5.74317430711815);
#255=CIRCLE('',#329,5.64317430711816);
#256=CIRCLE('',#331,5.69904753830495);
#257=CURVE_STYLE('',#261,POSITIVE_LENGTH_MEASURE(0.13),#288);
#258=CURVE_STYLE('',#262,POSITIVE_LENGTH_MEASURE(0.18),#288);
#259=CURVE_STYLE('',#263,POSITIVE_LENGTH_MEASURE(0.18),#288);
#260=CURVE_STYLE('',#264,POSITIVE_LENGTH_MEASURE(0.18),#288);
#261=DRAUGHTING_PRE_DEFINED_CURVE_FONT('continuous');
#262=DRAUGHTING_PRE_DEFINED_CURVE_FONT('continuous');
#263=DRAUGHTING_PRE_DEFINED_CURVE_FONT('continuous');
#264=DRAUGHTING_PRE_DEFINED_CURVE_FONT('continuous');
#265=PRESENTATION_LAYER_ASSIGNMENT('1','Layer 1',(#423,#424,#425,#291,#292,
#293,#294,#41));
#266=STYLED_ITEM('',(#274),#423);
#267=STYLED_ITEM('',(#275),#424);
#268=STYLED_ITEM('',(#276),#425);
#269=STYLED_ITEM('',(#277),#291);
#270=STYLED_ITEM('',(#278),#292);
#271=STYLED_ITEM('',(#279),#293);
#272=STYLED_ITEM('',(#280),#294);
#273=STYLED_ITEM('',(#281),#41);
#274=PRESENTATION_STYLE_ASSIGNMENT((#282));
#275=PRESENTATION_STYLE_ASSIGNMENT((#283));
#276=PRESENTATION_STYLE_ASSIGNMENT((#284));
#277=PRESENTATION_STYLE_ASSIGNMENT((#257));
#278=PRESENTATION_STYLE_ASSIGNMENT((#258));
#279=PRESENTATION_STYLE_ASSIGNMENT((#259));
#280=PRESENTATION_STYLE_ASSIGNMENT((#260));
#281=PRESENTATION_STYLE_ASSIGNMENT((#36));
#282=POINT_STYLE('',#285,POSITIVE_LENGTH_MEASURE(3.),#288);
#283=POINT_STYLE('',#286,POSITIVE_LENGTH_MEASURE(3.),#288);
#284=POINT_STYLE('',#287,POSITIVE_LENGTH_MEASURE(3.),#288);
#285=PRE_DEFINED_POINT_MARKER_SYMBOL('plus');
#286=PRE_DEFINED_POINT_MARKER_SYMBOL('plus');
#287=PRE_DEFINED_POINT_MARKER_SYMBOL('plus');
#288=COLOUR_RGB('Strong Stone',0.576470588235294,0.54508278019379,0.392156862745098);
#289=COLOUR_RGB('Medium Gray',0.490196078431373,0.490196078431373,0.490196078431373);
#290=AXIS2_PLACEMENT_3D('',#422,#334,#335);
#291=AXIS2_PLACEMENT_3D('',#426,#336,#337);
#292=AXIS2_PLACEMENT_3D('PCS',#427,#338,#339);
#293=AXIS2_PLACEMENT_3D('MCS',#428,#340,#341);
#294=AXIS2_PLACEMENT_3D('CSW',#429,#342,#343);
#295=AXIS2_PLACEMENT_3D('',#430,#344,#345);
#296=AXIS2_PLACEMENT_3D('',#432,#346,#347);
#297=AXIS2_PLACEMENT_3D('',#434,#348,#349);
#298=AXIS2_PLACEMENT_3D('',#435,#350,#351);
#299=AXIS2_PLACEMENT_3D('',#437,#352,#353);
#300=AXIS2_PLACEMENT_3D('',#438,#354,#355);
#301=AXIS2_PLACEMENT_3D('',#440,#356,#357);
#302=AXIS2_PLACEMENT_3D('',#441,#358,#359);
#303=AXIS2_PLACEMENT_3D('',#443,#360,#361);
#304=AXIS2_PLACEMENT_3D('',#444,#362,#363);
#305=AXIS2_PLACEMENT_3D('',#446,#364,#365);
#306=AXIS2_PLACEMENT_3D('',#447,#366,#367);
#307=AXIS2_PLACEMENT_3D('',#449,#368,#369);
#308=AXIS2_PLACEMENT_3D('',#450,#370,#371);
#309=AXIS2_PLACEMENT_3D('',#452,#372,#373);
#310=AXIS2_PLACEMENT_3D('',#453,#374,#375);
#311=AXIS2_PLACEMENT_3D('',#455,#376,#377);
#312=AXIS2_PLACEMENT_3D('',#457,#378,#379);
#313=AXIS2_PLACEMENT_3D('',#458,#380,#381);
#314=AXIS2_PLACEMENT_3D('',#460,#382,#383);
#315=AXIS2_PLACEMENT_3D('',#461,#384,#385);
#316=AXIS2_PLACEMENT_3D('',#463,#386,#387);
#317=AXIS2_PLACEMENT_3D('',#464,#388,#389);
#318=AXIS2_PLACEMENT_3D('',#466,#390,#391);
#319=AXIS2_PLACEMENT_3D('',#467,#392,#393);
#320=AXIS2_PLACEMENT_3D('',#469,#394,#395);
#321=AXIS2_PLACEMENT_3D('',#470,#396,#397);
#322=AXIS2_PLACEMENT_3D('',#472,#398,#399);
#323=AXIS2_PLACEMENT_3D('',#473,#400,#401);
#324=AXIS2_PLACEMENT_3D('',#475,#402,#403);
#325=AXIS2_PLACEMENT_3D('',#476,#404,#405);
#326=AXIS2_PLACEMENT_3D('',#478,#406,#407);
#327=AXIS2_PLACEMENT_3D('',#479,#408,#409);
#328=AXIS2_PLACEMENT_3D('',#481,#410,#411);
#329=AXIS2_PLACEMENT_3D('',#482,#412,#413);
#330=AXIS2_PLACEMENT_3D('',#484,#414,#415);
#331=AXIS2_PLACEMENT_3D('',#485,#416,#417);
#332=AXIS2_PLACEMENT_3D('',#487,#418,#419);
#333=AXIS2_PLACEMENT_3D('',#488,#420,#421);
#334=DIRECTION('',(0.,0.,1.));
#335=DIRECTION('',(1.,0.,0.));
#336=DIRECTION('',(0.,0.,1.));
#337=DIRECTION('',(1.,0.,0.));
#338=DIRECTION('',(0.,0.,1.));
#339=DIRECTION('',(1.,0.,0.));
#340=DIRECTION('',(0.,0.,1.));
#341=DIRECTION('',(1.,0.,0.));
#342=DIRECTION('',(0.,0.,1.));
#343=DIRECTION('',(1.,0.,0.));
#344=DIRECTION('',(0.,0.,-1.));
#345=DIRECTION('',(1.,0.,0.));
#346=DIRECTION('',(0.,0.,-1.));
#347=DIRECTION('',(1.,0.,0.));
#348=DIRECTION('',(0.,0.,-1.));
#349=DIRECTION('',(1.,0.,0.));
#350=DIRECTION('',(0.,0.,-1.));
#351=DIRECTION('',(1.,0.,0.));
#352=DIRECTION('',(0.,0.,-1.));
#353=DIRECTION('',(1.,0.,0.));
#354=DIRECTION('',(0.,0.,-1.));
#355=DIRECTION('',(1.,0.,0.));
#356=DIRECTION('',(0.,0.,1.));
#357=DIRECTION('',(-1.,0.,-1.05527703015314E-16));
#358=DIRECTION('',(0.,0.,-1.));
#359=DIRECTION('',(1.,0.,0.));
#360=DIRECTION('',(0.,0.,-1.));
#361=DIRECTION('',(1.,0.,0.));
#362=DIRECTION('',(0.,0.,-1.));
#363=DIRECTION('',(1.,0.,0.));
#364=DIRECTION('',(0.,0.,-1.));
#365=DIRECTION('',(1.,0.,0.));
#366=DIRECTION('',(0.,0.,-1.));
#367=DIRECTION('',(1.,0.,0.));
#368=DIRECTION('',(0.,0.,-1.));
#369=DIRECTION('',(1.,0.,0.));
#370=DIRECTION('',(0.,0.,-1.));
#371=DIRECTION('',(1.,0.,0.));
#372=DIRECTION('',(0.,0.,-1.));
#373=DIRECTION('',(1.,0.,0.));
#374=DIRECTION('',(0.,0.,-1.));
#375=DIRECTION('',(1.,0.,0.));
#376=DIRECTION('',(0.,0.,-1.));
#377=DIRECTION('',(1.,0.,0.));
#378=DIRECTION('',(0.,0.,-1.));
#379=DIRECTION('',(1.,0.,-4.99259521892728E-17));
#380=DIRECTION('',(0.,0.,-1.));
#381=DIRECTION('',(1.,0.,0.));
#382=DIRECTION('',(0.,0.,-1.));
#383=DIRECTION('',(1.,0.,0.));
#384=DIRECTION('',(0.,0.,-1.));
#385=DIRECTION('',(1.,0.,0.));
#386=DIRECTION('',(0.,0.,-1.));
#387=DIRECTION('',(1.,0.,0.));
#388=DIRECTION('',(0.,0.,-1.));
#389=DIRECTION('',(1.,0.,0.));
#390=DIRECTION('',(0.,0.,-1.));
#391=DIRECTION('',(1.,0.,0.));
#392=DIRECTION('',(0.,0.,-1.));
#393=DIRECTION('',(1.,0.,0.));
#394=DIRECTION('',(0.,0.,-1.));
#395=DIRECTION('',(1.,0.,0.));
#396=DIRECTION('',(0.,0.,-1.));
#397=DIRECTION('',(1.,0.,0.));
#398=DIRECTION('',(0.,0.,-1.));
#399=DIRECTION('',(1.,0.,-7.58457957514414E-16));
#400=DIRECTION('',(0.,0.,-1.));
#401=DIRECTION('',(1.,0.,0.));
#402=DIRECTION('',(0.,0.,-1.));
#403=DIRECTION('',(1.,0.,-1.53456006168511E-17));
#404=DIRECTION('',(0.,0.,-1.));
#405=DIRECTION('',(1.,0.,0.));
#406=DIRECTION('',(0.,0.,-1.));
#407=DIRECTION('',(1.,0.,0.));
#408=DIRECTION('',(0.,0.,-1.));
#409=DIRECTION('',(1.,0.,0.));
#410=DIRECTION('',(0.,0.,-1.));
#411=DIRECTION('',(1.,0.,0.));
#412=DIRECTION('',(0.,0.,-1.));
#413=DIRECTION('',(1.,0.,0.));
#414=DIRECTION('',(0.,0.,-1.));
#415=DIRECTION('',(1.,0.,0.));
#416=DIRECTION('',(0.,0.,-1.));
#417=DIRECTION('',(1.,0.,0.));
#418=DIRECTION('',(0.,0.,-1.));
#419=DIRECTION('',(1.,0.,-2.73320538052588E-15));
#420=DIRECTION('',(0.,0.,-1.));
#421=DIRECTION('',(1.,0.,-3.85954685944595E-17));
#422=CARTESIAN_POINT('',(0.,0.,0.));
#423=CARTESIAN_POINT('',(0.,0.,0.));
#424=CARTESIAN_POINT('',(0.,0.,-48.));
#425=CARTESIAN_POINT('',(0.,0.,-76.2));
#426=CARTESIAN_POINT('',(0.,0.,0.));
#427=CARTESIAN_POINT('',(0.,0.,0.));
#428=CARTESIAN_POINT('',(0.,0.,-48.));
#429=CARTESIAN_POINT('',(0.,0.,-76.2));
#430=CARTESIAN_POINT('',(0.,0.,-68.83));
#431=CARTESIAN_POINT('',(7.93474999999999,0.,-68.83));
#432=CARTESIAN_POINT('',(0.,0.,-1.));
#433=CARTESIAN_POINT('',(7.93475,0.,-1.));
#434=CARTESIAN_POINT('',(0.,0.,70.5183697733042));
#435=CARTESIAN_POINT('',(0.,0.,-68.9289479783387));
#436=CARTESIAN_POINT('',(7.92231844244944,0.,-68.9289479783387));
#437=CARTESIAN_POINT('',(0.,0.,-68.83));
#438=CARTESIAN_POINT('',(0.,0.,-69.7510520216613));
#439=CARTESIAN_POINT('',(7.71243155755054,0.,-69.7510520216613));
#440=CARTESIAN_POINT('',(0.,0.,-69.7510520216613));
#441=CARTESIAN_POINT('',(0.,0.,-69.85));
#442=CARTESIAN_POINT('',(7.7,0.,-69.85));
#443=CARTESIAN_POINT('',(0.,0.,-69.85));
#444=CARTESIAN_POINT('',(0.,0.,-76.2));
#445=CARTESIAN_POINT('',(7.7,0.,-76.2));
#446=CARTESIAN_POINT('',(0.,0.,70.5183697733042));
#447=CARTESIAN_POINT('',(0.,0.,-76.2));
#448=CARTESIAN_POINT('',(6.34246876431976,0.,-76.2));
#449=CARTESIAN_POINT('',(1.06581410364015E-14,0.,-76.2));
#450=CARTESIAN_POINT('',(0.,0.,0.));
#451=CARTESIAN_POINT('',(6.93475,0.,0.));
#452=CARTESIAN_POINT('',(0.,0.,0.));
#453=CARTESIAN_POINT('',(0.,0.,0.));
#454=CARTESIAN_POINT('',(0.,0.,-55.5819663179279));
#455=CARTESIAN_POINT('',(0.,0.,-57.7));
#456=CARTESIAN_POINT('',(3.525,0.,-57.7));
#457=CARTESIAN_POINT('',(0.,0.,-57.7));
#458=CARTESIAN_POINT('',(0.,0.,-61.05));
#459=CARTESIAN_POINT('',(3.525,0.,-61.05));
#460=CARTESIAN_POINT('',(0.,0.,-76.2));
#461=CARTESIAN_POINT('',(0.,0.,-61.2463059962366));
#462=CARTESIAN_POINT('',(3.68673832411469,0.,-61.2463059962366));
#463=CARTESIAN_POINT('',(0.,0.,-61.05));
#464=CARTESIAN_POINT('',(0.,0.,-63.046240317807));
#465=CARTESIAN_POINT('',(4.07007273428457,0.,-63.046240317807));
#466=CARTESIAN_POINT('',(0.,0.,-62.2278359774197));
#467=CARTESIAN_POINT('',(0.,0.,-63.6));
#468=CARTESIAN_POINT('',(3.81814527082145,0.,-63.6));
#469=CARTESIAN_POINT('',(0.,0.,-63.5372829220394));
#470=CARTESIAN_POINT('',(0.,0.,-71.8));
#471=CARTESIAN_POINT('',(4.68,0.,-71.8));
#472=CARTESIAN_POINT('',(0.,0.,-71.8));
#473=CARTESIAN_POINT('',(0.,0.,-71.9995396084458));
#474=CARTESIAN_POINT('',(5.2203190359301,0.,-71.9995396084458));
#475=CARTESIAN_POINT('',(0.,0.,-71.9995396084458));
#476=CARTESIAN_POINT('',(0.,0.,-72.75));
#477=CARTESIAN_POINT('',(5.74317430711815,0.,-72.75));
#478=CARTESIAN_POINT('',(0.,0.,-72.75));
#479=CARTESIAN_POINT('',(0.,0.,-73.7));
#480=CARTESIAN_POINT('',(5.74317430711815,0.,-73.7));
#481=CARTESIAN_POINT('',(0.,0.,-76.2));
#482=CARTESIAN_POINT('',(0.,0.,-74.));
#483=CARTESIAN_POINT('',(5.64317430711816,0.,-74.));
#484=CARTESIAN_POINT('',(0.,0.,-73.7));
#485=CARTESIAN_POINT('',(0.,0.,-75.6));
#486=CARTESIAN_POINT('',(5.69904753830495,0.,-75.6));
#487=CARTESIAN_POINT('',(0.,0.,-75.6));
#488=CARTESIAN_POINT('',(0.,0.,-76.2));
#489=MECHANICAL_DESIGN_GEOMETRIC_PRESENTATION_REPRESENTATION('',(#266,#267,
#268,#269,#270,#271,#272,#273),#490);
#490=(
GEOMETRIC_REPRESENTATION_CONTEXT(3)
GLOBAL_UNCERTAINTY_ASSIGNED_CONTEXT((#491))
GLOBAL_UNIT_ASSIGNED_CONTEXT((#497,#493,#492))
REPRESENTATION_CONTEXT('XE16.625E1-3.00-00','TOP_LEVEL_ASSEMBLY_PART')
);
#491=UNCERTAINTY_MEASURE_WITH_UNIT(LENGTH_MEASURE(2.E-5),#497,
'DISTANCE_ACCURACY_VALUE','Maximum Tolerance applied to model');
#492=(
NAMED_UNIT(*)
SI_UNIT($,.STERADIAN.)
SOLID_ANGLE_UNIT()
);
#493=(
CONVERSION_BASED_UNIT('DEGREE',#495)
NAMED_UNIT(#494)
PLANE_ANGLE_UNIT()
);
#494=DIMENSIONAL_EXPONENTS(0.,0.,0.,0.,0.,0.,0.);
#495=PLANE_ANGLE_MEASURE_WITH_UNIT(PLANE_ANGLE_MEASURE(0.0174532925),#496);
#496=(
NAMED_UNIT(*)
PLANE_ANGLE_UNIT()
SI_UNIT($,.RADIAN.)
);
#497=(
LENGTH_UNIT()
NAMED_UNIT(*)
SI_UNIT(.MILLI.,.METRE.)
);
ENDSEC;
END-ISO-10303-21;
