ISO-10303-21;
HEADER;
/* Generated by software containing ST-Developer
 * from STEP Tools, Inc. (www.steptools.com) 
 */
/* OPTION: using custom schema-name function */

FILE_DESCRIPTION(
/* description */ (''),
/* implementation_level */ '2;1');

FILE_NAME(
/* name */ 'XE10.500G2-3.00-00.0S_Basic.stp',
/* time_stamp */ '2022-07-29T13:55:04+05:00',
/* author */ (''),
/* organization */ (''),
/* preprocessor_version */ 'ST-DEVELOPER v16.7',
/* originating_system */ 'SIEMENS PLM Software NX 12.0',
/* authorisation */ '');

FILE_SCHEMA (('AUTOMOTIVE_DESIGN { 1 0 10303 214 3 1 1 1 }'));
ENDSEC;

DATA;
#10=CONSTRUCTIVE_GEOMETRY_REPRESENTATION_RELATIONSHIP(
'supplemental geometry','',#34,#11);
#11=CONSTRUCTIVE_GEOMETRY_REPRESENTATION('supplemental geometry',(#302,
#303,#304,#305),#510);
#12=GEOMETRICALLY_BOUNDED_WIREFRAME_SHAPE_REPRESENTATION(
'inco4FC439F6rwix-None',(#35),#510);
#13=PROPERTY_DEFINITION_REPRESENTATION(#17,#15);
#14=PROPERTY_DEFINITION_REPRESENTATION(#18,#16);
#15=REPRESENTATION('',(#19),#510);
#16=REPRESENTATION('',(#20),#510);
#17=PROPERTY_DEFINITION('pmi validation property','',#25);
#18=PROPERTY_DEFINITION('pmi validation property','',#25);
#19=VALUE_REPRESENTATION_ITEM('number of annotations',COUNT_MEASURE(0.));
#20=VALUE_REPRESENTATION_ITEM('number of views',COUNT_MEASURE(0.));
#21=SHAPE_REPRESENTATION_RELATIONSHIP('None',
'relationship between inco4FC439F6rwix-None and inco4FC439F6rwix-None',
#34,#23);
#22=SHAPE_REPRESENTATION_RELATIONSHIP('None',
'relationship between inco4FC439F6rwix-None and inco4FC439F6rwix-None',
#34,#12);
#23=ADVANCED_BREP_SHAPE_REPRESENTATION('inco4FC439F6rwix-None',(#41),#510);
#24=SHAPE_DEFINITION_REPRESENTATION(#25,#34);
#25=PRODUCT_DEFINITION_SHAPE('','',#26);
#26=PRODUCT_DEFINITION(' ','',#28,#27);
#27=PRODUCT_DEFINITION_CONTEXT('part definition',#33,'design');
#28=PRODUCT_DEFINITION_FORMATION_WITH_SPECIFIED_SOURCE(' ',' ',#30,
 .NOT_KNOWN.);
#29=PRODUCT_RELATED_PRODUCT_CATEGORY('part','',(#30));
#30=PRODUCT('inco4FC439F6rwix','inco4FC439F6rwix',' ',(#31));
#31=PRODUCT_CONTEXT(' ',#33,'mechanical');
#32=APPLICATION_PROTOCOL_DEFINITION('international standard',
'automotive_design',2010,#33);
#33=APPLICATION_CONTEXT(
'core data for automotive mechanical design processes');
#34=SHAPE_REPRESENTATION('inco4FC439F6rwix-None',(#301),#510);
#35=GEOMETRIC_CURVE_SET('None',(#440,#441,#442));
#36=SURFACE_STYLE_USAGE(.BOTH.,#37);
#37=SURFACE_SIDE_STYLE('',(#38));
#38=SURFACE_STYLE_FILL_AREA(#39);
#39=FILL_AREA_STYLE('',(#40));
#40=FILL_AREA_STYLE_COLOUR('',#300);
#41=MANIFOLD_SOLID_BREP('NOCUT',#42);
#42=CLOSED_SHELL('',(#62,#63,#64,#65,#66,#67,#68,#69,#70,#71,#72,#73,#74,
#75,#76,#77,#78,#79,#80,#81,#82));
#43=VERTEX_LOOP('',#216);
#44=FACE_OUTER_BOUND('',#139,.T.);
#45=PLANE('',#318);
#46=PLANE('',#320);
#47=CONICAL_SURFACE('',#312,4.93465731974114,56.6035954456533);
#48=CONICAL_SURFACE('',#321,5.34725,45.);
#49=CONICAL_SURFACE('',#323,4.44089209850063E-16,59.0000000000001);
#50=CONICAL_SURFACE('',#329,2.3732361909795,74.9999999999912);
#51=CONICAL_SURFACE('',#333,2.72160459229349,49.9999999999992);
#52=CONICAL_SURFACE('',#335,2.59027234429821,5.99999999999999);
#53=CONICAL_SURFACE('',#337,3.13,74.9999999999999);
#54=CONICAL_SURFACE('',#345,3.54813469186403,2.00000000000002);
#55=CONICAL_SURFACE('',#346,3.59003961525413,45.);
#56=TOROIDAL_SURFACE('',#310,5.54725,0.800000000000001);
#57=TOROIDAL_SURFACE('',#314,5.375,0.800000000000006);
#58=TOROIDAL_SURFACE('',#327,2.425,0.2);
#59=TOROIDAL_SURFACE('',#331,2.20737450454426,0.799999999999997);
#60=TOROIDAL_SURFACE('',#339,3.44813469186403,0.2);
#61=TOROIDAL_SURFACE('',#343,3.44813469186403,0.2);
#62=ADVANCED_FACE('FP_EH_SU1',(#87,#88),#83,.T.);
#63=ADVANCED_FACE('',(#89,#90),#56,.T.);
#64=ADVANCED_FACE('FP_EH_SU2',(#91,#92),#47,.T.);
#65=ADVANCED_FACE('',(#93,#94),#57,.F.);
#66=ADVANCED_FACE('FP_EH_SU3',(#95,#96),#84,.T.);
#67=ADVANCED_FACE('FP_EH_SU4',(#97,#98),#45,.T.);
#68=ADVANCED_FACE('',(#44),#46,.F.);
#69=ADVANCED_FACE('',(#99,#100),#48,.T.);
#70=ADVANCED_FACE('',(#101,#102),#49,.F.);
#71=ADVANCED_FACE('DCH3',(#103,#104),#85,.F.);
#72=ADVANCED_FACE('',(#105,#106),#58,.T.);
#73=ADVANCED_FACE('',(#107,#108),#50,.F.);
#74=ADVANCED_FACE('',(#109,#110),#59,.F.);
#75=ADVANCED_FACE('',(#111,#112),#51,.F.);
#76=ADVANCED_FACE('TSALN',(#113,#114),#52,.F.);
#77=ADVANCED_FACE('',(#115,#116),#53,.F.);
#78=ADVANCED_FACE('',(#117,#118),#60,.F.);
#79=ADVANCED_FACE('DCH2',(#119,#120),#86,.F.);
#80=ADVANCED_FACE('',(#121,#122),#61,.F.);
#81=ADVANCED_FACE('TSAN',(#123,#124),#54,.F.);
#82=ADVANCED_FACE('DCH4',(#125,#126),#55,.F.);
#83=CYLINDRICAL_SURFACE('',#308,6.34725);
#84=CYLINDRICAL_SURFACE('',#316,4.575);
#85=CYLINDRICAL_SURFACE('',#325,2.225);
#86=CYLINDRICAL_SURFACE('',#341,3.64813469186403);
#87=FACE_BOUND('',#127,.T.);
#88=FACE_BOUND('',#128,.T.);
#89=FACE_BOUND('',#129,.T.);
#90=FACE_BOUND('',#130,.T.);
#91=FACE_BOUND('',#131,.T.);
#92=FACE_BOUND('',#132,.T.);
#93=FACE_BOUND('',#133,.T.);
#94=FACE_BOUND('',#134,.T.);
#95=FACE_BOUND('',#135,.T.);
#96=FACE_BOUND('',#136,.T.);
#97=FACE_BOUND('',#137,.T.);
#98=FACE_BOUND('',#138,.T.);
#99=FACE_BOUND('',#140,.T.);
#100=FACE_BOUND('',#141,.T.);
#101=FACE_BOUND('',#142,.T.);
#102=FACE_BOUND('',#43,.T.);
#103=FACE_BOUND('',#143,.T.);
#104=FACE_BOUND('',#144,.T.);
#105=FACE_BOUND('',#145,.T.);
#106=FACE_BOUND('',#146,.T.);
#107=FACE_BOUND('',#147,.T.);
#108=FACE_BOUND('',#148,.T.);
#109=FACE_BOUND('',#149,.T.);
#110=FACE_BOUND('',#150,.T.);
#111=FACE_BOUND('',#151,.T.);
#112=FACE_BOUND('',#152,.T.);
#113=FACE_BOUND('',#153,.T.);
#114=FACE_BOUND('',#154,.T.);
#115=FACE_BOUND('',#155,.T.);
#116=FACE_BOUND('',#156,.T.);
#117=FACE_BOUND('',#157,.T.);
#118=FACE_BOUND('',#158,.T.);
#119=FACE_BOUND('',#159,.T.);
#120=FACE_BOUND('',#160,.T.);
#121=FACE_BOUND('',#161,.T.);
#122=FACE_BOUND('',#162,.T.);
#123=FACE_BOUND('',#163,.T.);
#124=FACE_BOUND('',#164,.T.);
#125=FACE_BOUND('',#165,.T.);
#126=FACE_BOUND('',#166,.T.);
#127=EDGE_LOOP('',(#167));
#128=EDGE_LOOP('',(#168));
#129=EDGE_LOOP('',(#169));
#130=EDGE_LOOP('',(#170));
#131=EDGE_LOOP('',(#171));
#132=EDGE_LOOP('',(#172));
#133=EDGE_LOOP('',(#173));
#134=EDGE_LOOP('',(#174));
#135=EDGE_LOOP('',(#175));
#136=EDGE_LOOP('',(#176));
#137=EDGE_LOOP('',(#177));
#138=EDGE_LOOP('',(#178));
#139=EDGE_LOOP('',(#179));
#140=EDGE_LOOP('',(#180));
#141=EDGE_LOOP('',(#181));
#142=EDGE_LOOP('',(#182));
#143=EDGE_LOOP('',(#183));
#144=EDGE_LOOP('',(#184));
#145=EDGE_LOOP('',(#185));
#146=EDGE_LOOP('',(#186));
#147=EDGE_LOOP('',(#187));
#148=EDGE_LOOP('',(#188));
#149=EDGE_LOOP('',(#189));
#150=EDGE_LOOP('',(#190));
#151=EDGE_LOOP('',(#191));
#152=EDGE_LOOP('',(#192));
#153=EDGE_LOOP('',(#193));
#154=EDGE_LOOP('',(#194));
#155=EDGE_LOOP('',(#195));
#156=EDGE_LOOP('',(#196));
#157=EDGE_LOOP('',(#197));
#158=EDGE_LOOP('',(#198));
#159=EDGE_LOOP('',(#199));
#160=EDGE_LOOP('',(#200));
#161=EDGE_LOOP('',(#201));
#162=EDGE_LOOP('',(#202));
#163=EDGE_LOOP('',(#203));
#164=EDGE_LOOP('',(#204));
#165=EDGE_LOOP('',(#205));
#166=EDGE_LOOP('',(#206));
#167=ORIENTED_EDGE('',*,*,#228,.F.);
#168=ORIENTED_EDGE('',*,*,#229,.T.);
#169=ORIENTED_EDGE('',*,*,#228,.T.);
#170=ORIENTED_EDGE('',*,*,#230,.F.);
#171=ORIENTED_EDGE('',*,*,#230,.T.);
#172=ORIENTED_EDGE('',*,*,#231,.F.);
#173=ORIENTED_EDGE('',*,*,#231,.T.);
#174=ORIENTED_EDGE('',*,*,#232,.F.);
#175=ORIENTED_EDGE('',*,*,#232,.T.);
#176=ORIENTED_EDGE('',*,*,#233,.F.);
#177=ORIENTED_EDGE('',*,*,#234,.F.);
#178=ORIENTED_EDGE('',*,*,#233,.T.);
#179=ORIENTED_EDGE('',*,*,#235,.F.);
#180=ORIENTED_EDGE('',*,*,#229,.F.);
#181=ORIENTED_EDGE('',*,*,#235,.T.);
#182=ORIENTED_EDGE('',*,*,#236,.T.);
#183=ORIENTED_EDGE('',*,*,#237,.T.);
#184=ORIENTED_EDGE('',*,*,#236,.F.);
#185=ORIENTED_EDGE('',*,*,#238,.T.);
#186=ORIENTED_EDGE('',*,*,#237,.F.);
#187=ORIENTED_EDGE('',*,*,#239,.T.);
#188=ORIENTED_EDGE('',*,*,#238,.F.);
#189=ORIENTED_EDGE('',*,*,#240,.T.);
#190=ORIENTED_EDGE('',*,*,#239,.F.);
#191=ORIENTED_EDGE('',*,*,#241,.T.);
#192=ORIENTED_EDGE('',*,*,#240,.F.);
#193=ORIENTED_EDGE('',*,*,#242,.T.);
#194=ORIENTED_EDGE('',*,*,#241,.F.);
#195=ORIENTED_EDGE('',*,*,#243,.T.);
#196=ORIENTED_EDGE('',*,*,#242,.F.);
#197=ORIENTED_EDGE('',*,*,#244,.T.);
#198=ORIENTED_EDGE('',*,*,#243,.F.);
#199=ORIENTED_EDGE('',*,*,#245,.T.);
#200=ORIENTED_EDGE('',*,*,#244,.F.);
#201=ORIENTED_EDGE('',*,*,#246,.T.);
#202=ORIENTED_EDGE('',*,*,#245,.F.);
#203=ORIENTED_EDGE('',*,*,#247,.T.);
#204=ORIENTED_EDGE('',*,*,#246,.F.);
#205=ORIENTED_EDGE('',*,*,#234,.T.);
#206=ORIENTED_EDGE('',*,*,#247,.F.);
#207=VERTEX_POINT('',#448);
#208=VERTEX_POINT('',#450);
#209=VERTEX_POINT('',#453);
#210=VERTEX_POINT('',#456);
#211=VERTEX_POINT('',#459);
#212=VERTEX_POINT('',#462);
#213=VERTEX_POINT('',#465);
#214=VERTEX_POINT('',#468);
#215=VERTEX_POINT('',#472);
#216=VERTEX_POINT('',#473);
#217=VERTEX_POINT('',#476);
#218=VERTEX_POINT('',#479);
#219=VERTEX_POINT('',#482);
#220=VERTEX_POINT('',#485);
#221=VERTEX_POINT('',#488);
#222=VERTEX_POINT('',#491);
#223=VERTEX_POINT('',#494);
#224=VERTEX_POINT('',#497);
#225=VERTEX_POINT('',#500);
#226=VERTEX_POINT('',#503);
#227=VERTEX_POINT('',#506);
#228=EDGE_CURVE('',#207,#207,#248,.T.);
#229=EDGE_CURVE('',#208,#208,#249,.T.);
#230=EDGE_CURVE('',#209,#209,#250,.T.);
#231=EDGE_CURVE('',#210,#210,#251,.T.);
#232=EDGE_CURVE('',#211,#211,#252,.T.);
#233=EDGE_CURVE('',#212,#212,#253,.T.);
#234=EDGE_CURVE('',#213,#213,#254,.T.);
#235=EDGE_CURVE('',#214,#214,#255,.T.);
#236=EDGE_CURVE('',#215,#215,#256,.T.);
#237=EDGE_CURVE('',#217,#217,#257,.T.);
#238=EDGE_CURVE('',#218,#218,#258,.T.);
#239=EDGE_CURVE('',#219,#219,#259,.T.);
#240=EDGE_CURVE('',#220,#220,#260,.T.);
#241=EDGE_CURVE('',#221,#221,#261,.T.);
#242=EDGE_CURVE('',#222,#222,#262,.T.);
#243=EDGE_CURVE('',#223,#223,#263,.T.);
#244=EDGE_CURVE('',#224,#224,#264,.T.);
#245=EDGE_CURVE('',#225,#225,#265,.T.);
#246=EDGE_CURVE('',#226,#226,#266,.T.);
#247=EDGE_CURVE('',#227,#227,#267,.T.);
#248=CIRCLE('',#306,6.34725);
#249=CIRCLE('',#307,6.34725);
#250=CIRCLE('',#309,5.98759268025886);
#251=CIRCLE('',#311,4.93465731974114);
#252=CIRCLE('',#313,4.575);
#253=CIRCLE('',#315,4.575);
#254=CIRCLE('',#317,4.09003961525413);
#255=CIRCLE('',#319,5.34725);
#256=CIRCLE('',#322,2.225);
#257=CIRCLE('',#324,2.225);
#258=CIRCLE('',#326,2.3732361909795);
#259=CIRCLE('',#328,2.41442974062627);
#260=CIRCLE('',#330,2.72160459229349);
#261=CIRCLE('',#332,2.59027234429821);
#262=CIRCLE('',#334,3.13);
#263=CIRCLE('',#336,3.49989850088453);
#264=CIRCLE('',#338,3.64813469186403);
#265=CIRCLE('',#340,3.64813469186403);
#266=CIRCLE('',#342,3.54813469186403);
#267=CIRCLE('',#344,3.59003961525413);
#268=CURVE_STYLE('',#272,POSITIVE_LENGTH_MEASURE(0.13),#299);
#269=CURVE_STYLE('',#273,POSITIVE_LENGTH_MEASURE(0.18),#299);
#270=CURVE_STYLE('',#274,POSITIVE_LENGTH_MEASURE(0.18),#299);
#271=CURVE_STYLE('',#275,POSITIVE_LENGTH_MEASURE(0.18),#299);
#272=DRAUGHTING_PRE_DEFINED_CURVE_FONT('continuous');
#273=DRAUGHTING_PRE_DEFINED_CURVE_FONT('continuous');
#274=DRAUGHTING_PRE_DEFINED_CURVE_FONT('continuous');
#275=DRAUGHTING_PRE_DEFINED_CURVE_FONT('continuous');
#276=PRESENTATION_LAYER_ASSIGNMENT('1','Layer 1',(#440,#441,#442,#302,#303,
#304,#305,#41));
#277=STYLED_ITEM('',(#285),#440);
#278=STYLED_ITEM('',(#286),#441);
#279=STYLED_ITEM('',(#287),#442);
#280=STYLED_ITEM('',(#288),#302);
#281=STYLED_ITEM('',(#289),#303);
#282=STYLED_ITEM('',(#290),#304);
#283=STYLED_ITEM('',(#291),#305);
#284=STYLED_ITEM('',(#292),#41);
#285=PRESENTATION_STYLE_ASSIGNMENT((#293));
#286=PRESENTATION_STYLE_ASSIGNMENT((#294));
#287=PRESENTATION_STYLE_ASSIGNMENT((#295));
#288=PRESENTATION_STYLE_ASSIGNMENT((#268));
#289=PRESENTATION_STYLE_ASSIGNMENT((#269));
#290=PRESENTATION_STYLE_ASSIGNMENT((#270));
#291=PRESENTATION_STYLE_ASSIGNMENT((#271));
#292=PRESENTATION_STYLE_ASSIGNMENT((#36));
#293=POINT_STYLE('',#296,POSITIVE_LENGTH_MEASURE(3.),#299);
#294=POINT_STYLE('',#297,POSITIVE_LENGTH_MEASURE(3.),#299);
#295=POINT_STYLE('',#298,POSITIVE_LENGTH_MEASURE(3.),#299);
#296=PRE_DEFINED_POINT_MARKER_SYMBOL('plus');
#297=PRE_DEFINED_POINT_MARKER_SYMBOL('plus');
#298=PRE_DEFINED_POINT_MARKER_SYMBOL('plus');
#299=COLOUR_RGB('Strong Stone',0.576470588235294,0.54508278019379,0.392156862745098);
#300=COLOUR_RGB('Medium Gray',0.490196078431373,0.490196078431373,0.490196078431373);
#301=AXIS2_PLACEMENT_3D('',#439,#347,#348);
#302=AXIS2_PLACEMENT_3D('',#443,#349,#350);
#303=AXIS2_PLACEMENT_3D('PCS',#444,#351,#352);
#304=AXIS2_PLACEMENT_3D('MCS',#445,#353,#354);
#305=AXIS2_PLACEMENT_3D('CSW',#446,#355,#356);
#306=AXIS2_PLACEMENT_3D('',#447,#357,#358);
#307=AXIS2_PLACEMENT_3D('',#449,#359,#360);
#308=AXIS2_PLACEMENT_3D('',#451,#361,#362);
#309=AXIS2_PLACEMENT_3D('',#452,#363,#364);
#310=AXIS2_PLACEMENT_3D('',#454,#365,#366);
#311=AXIS2_PLACEMENT_3D('',#455,#367,#368);
#312=AXIS2_PLACEMENT_3D('',#457,#369,#370);
#313=AXIS2_PLACEMENT_3D('',#458,#371,#372);
#314=AXIS2_PLACEMENT_3D('',#460,#373,#374);
#315=AXIS2_PLACEMENT_3D('',#461,#375,#376);
#316=AXIS2_PLACEMENT_3D('',#463,#377,#378);
#317=AXIS2_PLACEMENT_3D('',#464,#379,#380);
#318=AXIS2_PLACEMENT_3D('',#466,#381,#382);
#319=AXIS2_PLACEMENT_3D('',#467,#383,#384);
#320=AXIS2_PLACEMENT_3D('',#469,#385,#386);
#321=AXIS2_PLACEMENT_3D('',#470,#387,#388);
#322=AXIS2_PLACEMENT_3D('',#471,#389,#390);
#323=AXIS2_PLACEMENT_3D('',#474,#391,#392);
#324=AXIS2_PLACEMENT_3D('',#475,#393,#394);
#325=AXIS2_PLACEMENT_3D('',#477,#395,#396);
#326=AXIS2_PLACEMENT_3D('',#478,#397,#398);
#327=AXIS2_PLACEMENT_3D('',#480,#399,#400);
#328=AXIS2_PLACEMENT_3D('',#481,#401,#402);
#329=AXIS2_PLACEMENT_3D('',#483,#403,#404);
#330=AXIS2_PLACEMENT_3D('',#484,#405,#406);
#331=AXIS2_PLACEMENT_3D('',#486,#407,#408);
#332=AXIS2_PLACEMENT_3D('',#487,#409,#410);
#333=AXIS2_PLACEMENT_3D('',#489,#411,#412);
#334=AXIS2_PLACEMENT_3D('',#490,#413,#414);
#335=AXIS2_PLACEMENT_3D('',#492,#415,#416);
#336=AXIS2_PLACEMENT_3D('',#493,#417,#418);
#337=AXIS2_PLACEMENT_3D('',#495,#419,#420);
#338=AXIS2_PLACEMENT_3D('',#496,#421,#422);
#339=AXIS2_PLACEMENT_3D('',#498,#423,#424);
#340=AXIS2_PLACEMENT_3D('',#499,#425,#426);
#341=AXIS2_PLACEMENT_3D('',#501,#427,#428);
#342=AXIS2_PLACEMENT_3D('',#502,#429,#430);
#343=AXIS2_PLACEMENT_3D('',#504,#431,#432);
#344=AXIS2_PLACEMENT_3D('',#505,#433,#434);
#345=AXIS2_PLACEMENT_3D('',#507,#435,#436);
#346=AXIS2_PLACEMENT_3D('',#508,#437,#438);
#347=DIRECTION('',(0.,0.,1.));
#348=DIRECTION('',(1.,0.,0.));
#349=DIRECTION('',(0.,0.,1.));
#350=DIRECTION('',(1.,0.,0.));
#351=DIRECTION('',(0.,0.,1.));
#352=DIRECTION('',(1.,0.,0.));
#353=DIRECTION('',(0.,0.,1.));
#354=DIRECTION('',(1.,0.,0.));
#355=DIRECTION('',(0.,0.,1.));
#356=DIRECTION('',(1.,0.,0.));
#357=DIRECTION('',(0.,0.,-1.));
#358=DIRECTION('',(1.,0.,0.));
#359=DIRECTION('',(0.,0.,-1.));
#360=DIRECTION('',(1.,0.,0.));
#361=DIRECTION('',(0.,0.,-1.));
#362=DIRECTION('',(1.,0.,0.));
#363=DIRECTION('',(0.,0.,-1.));
#364=DIRECTION('',(1.,0.,0.));
#365=DIRECTION('',(0.,0.,-1.));
#366=DIRECTION('',(1.,0.,0.));
#367=DIRECTION('',(0.,0.,-1.));
#368=DIRECTION('',(1.,0.,0.));
#369=DIRECTION('',(0.,0.,1.));
#370=DIRECTION('',(-1.,0.,2.2799488990327E-17));
#371=DIRECTION('',(0.,0.,-1.));
#372=DIRECTION('',(1.,0.,0.));
#373=DIRECTION('',(0.,0.,-1.));
#374=DIRECTION('',(1.,0.,0.));
#375=DIRECTION('',(0.,0.,-1.));
#376=DIRECTION('',(1.,0.,0.));
#377=DIRECTION('',(0.,0.,-1.));
#378=DIRECTION('',(1.,0.,0.));
#379=DIRECTION('',(0.,0.,-1.));
#380=DIRECTION('',(1.,0.,0.));
#381=DIRECTION('',(0.,0.,-1.));
#382=DIRECTION('',(1.,0.,0.));
#383=DIRECTION('',(0.,0.,-1.));
#384=DIRECTION('',(1.,0.,0.));
#385=DIRECTION('',(0.,0.,-1.));
#386=DIRECTION('',(1.,0.,0.));
#387=DIRECTION('',(0.,0.,-1.));
#388=DIRECTION('',(1.,0.,0.));
#389=DIRECTION('',(0.,0.,-1.));
#390=DIRECTION('',(1.,0.,0.));
#391=DIRECTION('',(0.,0.,-1.));
#392=DIRECTION('',(1.,0.,-6.6708929383492E-17));
#393=DIRECTION('',(0.,0.,-1.));
#394=DIRECTION('',(1.,0.,0.));
#395=DIRECTION('',(0.,0.,-1.));
#396=DIRECTION('',(1.,0.,0.));
#397=DIRECTION('',(0.,0.,-1.));
#398=DIRECTION('',(1.,0.,0.));
#399=DIRECTION('',(0.,0.,-1.));
#400=DIRECTION('',(1.,0.,0.));
#401=DIRECTION('',(0.,0.,-1.));
#402=DIRECTION('',(1.,0.,0.));
#403=DIRECTION('',(0.,0.,-1.));
#404=DIRECTION('',(1.,0.,-2.6013252248921E-17));
#405=DIRECTION('',(0.,0.,-1.));
#406=DIRECTION('',(1.,0.,0.));
#407=DIRECTION('',(0.,0.,-1.));
#408=DIRECTION('',(1.,0.,0.));
#409=DIRECTION('',(0.,0.,-1.));
#410=DIRECTION('',(1.,0.,0.));
#411=DIRECTION('',(0.,0.,1.));
#412=DIRECTION('',(-1.,0.,1.16183139176962E-17));
#413=DIRECTION('',(0.,0.,-1.));
#414=DIRECTION('',(1.,0.,0.));
#415=DIRECTION('',(0.,0.,-1.));
#416=DIRECTION('',(1.,0.,-2.57725080244094E-16));
#417=DIRECTION('',(0.,0.,-1.));
#418=DIRECTION('',(1.,0.,0.));
#419=DIRECTION('',(0.,0.,-1.));
#420=DIRECTION('',(1.,0.,7.43085195752396E-18));
#421=DIRECTION('',(0.,0.,-1.));
#422=DIRECTION('',(1.,0.,0.));
#423=DIRECTION('',(0.,0.,-1.));
#424=DIRECTION('',(1.,0.,0.));
#425=DIRECTION('',(0.,0.,-1.));
#426=DIRECTION('',(1.,0.,0.));
#427=DIRECTION('',(0.,0.,-1.));
#428=DIRECTION('',(1.,0.,0.));
#429=DIRECTION('',(0.,0.,-1.));
#430=DIRECTION('',(1.,0.,0.));
#431=DIRECTION('',(0.,0.,-1.));
#432=DIRECTION('',(1.,0.,0.));
#433=DIRECTION('',(0.,0.,-1.));
#434=DIRECTION('',(1.,0.,0.));
#435=DIRECTION('',(0.,0.,-1.));
#436=DIRECTION('',(1.,0.,-3.60753395562706E-16));
#437=DIRECTION('',(0.,0.,-1.));
#438=DIRECTION('',(1.,0.,-9.67970095557579E-17));
#439=CARTESIAN_POINT('',(0.,0.,0.));
#440=CARTESIAN_POINT('',(0.,0.,0.));
#441=CARTESIAN_POINT('',(0.,0.,-45.));
#442=CARTESIAN_POINT('',(0.,0.,-76.2));
#443=CARTESIAN_POINT('',(0.,0.,0.));
#444=CARTESIAN_POINT('',(0.,0.,0.));
#445=CARTESIAN_POINT('',(0.,0.,-45.));
#446=CARTESIAN_POINT('',(0.,0.,-76.2));
#447=CARTESIAN_POINT('',(0.,0.,-48.77));
#448=CARTESIAN_POINT('',(6.34725,0.,-48.77));
#449=CARTESIAN_POINT('',(0.,0.,-1.));
#450=CARTESIAN_POINT('',(6.34725,0.,-1.));
#451=CARTESIAN_POINT('',(0.,0.,70.5183697733042));
#452=CARTESIAN_POINT('',(0.,0.,-49.4379059244703));
#453=CARTESIAN_POINT('',(5.98759268025886,0.,-49.4379059244703));
#454=CARTESIAN_POINT('',(0.,0.,-48.77));
#455=CARTESIAN_POINT('',(0.,0.,-50.1320940755298));
#456=CARTESIAN_POINT('',(4.93465731974114,0.,-50.1320940755298));
#457=CARTESIAN_POINT('',(0.,0.,-50.1320940755298));
#458=CARTESIAN_POINT('',(0.,0.,-50.8));
#459=CARTESIAN_POINT('',(4.575,0.,-50.8));
#460=CARTESIAN_POINT('',(0.,0.,-50.8));
#461=CARTESIAN_POINT('',(0.,0.,-76.2));
#462=CARTESIAN_POINT('',(4.575,0.,-76.2));
#463=CARTESIAN_POINT('',(0.,0.,70.5183697733042));
#464=CARTESIAN_POINT('',(0.,0.,-76.2));
#465=CARTESIAN_POINT('',(4.09003961525413,0.,-76.2));
#466=CARTESIAN_POINT('',(1.06581410364015E-14,0.,-76.2));
#467=CARTESIAN_POINT('',(0.,0.,0.));
#468=CARTESIAN_POINT('',(5.34725,0.,0.));
#469=CARTESIAN_POINT('',(0.,0.,0.));
#470=CARTESIAN_POINT('',(0.,0.,0.));
#471=CARTESIAN_POINT('',(0.,0.,-63.2));
#472=CARTESIAN_POINT('',(2.225,0.,-63.2));
#473=CARTESIAN_POINT('',(-4.44089209850063E-16,0.,-61.8630851226637));
#474=CARTESIAN_POINT('',(0.,0.,-61.8630851226637));
#475=CARTESIAN_POINT('',(0.,0.,-66.5));
#476=CARTESIAN_POINT('',(2.225,0.,-66.5));
#477=CARTESIAN_POINT('',(0.,0.,-76.2));
#478=CARTESIAN_POINT('',(0.,0.,-66.6931851652578));
#479=CARTESIAN_POINT('',(2.3732361909795,0.,-66.6931851652578));
#480=CARTESIAN_POINT('',(0.,0.,-66.5));
#481=CARTESIAN_POINT('',(0.,0.,-66.7042229436191));
#482=CARTESIAN_POINT('',(2.41442974062627,0.,-66.7042229436191));
#483=CARTESIAN_POINT('',(0.,0.,-66.6931851652578));
#484=CARTESIAN_POINT('',(0.,0.,-68.0897991591455));
#485=CARTESIAN_POINT('',(2.72160459229349,0.,-68.0897991591455));
#486=CARTESIAN_POINT('',(0.,0.,-67.4769636046503));
#487=CARTESIAN_POINT('',(0.,0.,-68.2));
#488=CARTESIAN_POINT('',(2.59027234429821,0.,-68.2));
#489=CARTESIAN_POINT('',(0.,0.,-68.0897991591455));
#490=CARTESIAN_POINT('',(0.,0.,-73.33516562237));
#491=CARTESIAN_POINT('',(3.13,0.,-73.33516562237));
#492=CARTESIAN_POINT('',(0.,0.,-68.2));
#493=CARTESIAN_POINT('',(0.,0.,-73.4342796269635));
#494=CARTESIAN_POINT('',(3.49989850088453,0.,-73.4342796269635));
#495=CARTESIAN_POINT('',(0.,0.,-73.33516562237));
#496=CARTESIAN_POINT('',(0.,0.,-73.6274647922213));
#497=CARTESIAN_POINT('',(3.64813469186403,0.,-73.6274647922213));
#498=CARTESIAN_POINT('',(0.,0.,-73.6274647922213));
#499=CARTESIAN_POINT('',(0.,0.,-74.3267949192431));
#500=CARTESIAN_POINT('',(3.64813469186403,0.,-74.3267949192431));
#501=CARTESIAN_POINT('',(0.,0.,-76.2));
#502=CARTESIAN_POINT('',(0.,0.,-74.5));
#503=CARTESIAN_POINT('',(3.54813469186403,0.,-74.5));
#504=CARTESIAN_POINT('',(0.,0.,-74.3267949192431));
#505=CARTESIAN_POINT('',(0.,0.,-75.7));
#506=CARTESIAN_POINT('',(3.59003961525413,0.,-75.7));
#507=CARTESIAN_POINT('',(0.,0.,-74.5));
#508=CARTESIAN_POINT('',(0.,0.,-75.7));
#509=MECHANICAL_DESIGN_GEOMETRIC_PRESENTATION_REPRESENTATION('',(#277,#278,
#279,#280,#281,#282,#283,#284),#510);
#510=(
GEOMETRIC_REPRESENTATION_CONTEXT(3)
GLOBAL_UNCERTAINTY_ASSIGNED_CONTEXT((#511))
GLOBAL_UNIT_ASSIGNED_CONTEXT((#517,#513,#512))
REPRESENTATION_CONTEXT('XE10.500G2-3.00-00','TOP_LEVEL_ASSEMBLY_PART')
);
#511=UNCERTAINTY_MEASURE_WITH_UNIT(LENGTH_MEASURE(2.E-5),#517,
'DISTANCE_ACCURACY_VALUE','Maximum Tolerance applied to model');
#512=(
NAMED_UNIT(*)
SI_UNIT($,.STERADIAN.)
SOLID_ANGLE_UNIT()
);
#513=(
CONVERSION_BASED_UNIT('DEGREE',#515)
NAMED_UNIT(#514)
PLANE_ANGLE_UNIT()
);
#514=DIMENSIONAL_EXPONENTS(0.,0.,0.,0.,0.,0.,0.);
#515=PLANE_ANGLE_MEASURE_WITH_UNIT(PLANE_ANGLE_MEASURE(0.0174532925),#516);
#516=(
NAMED_UNIT(*)
PLANE_ANGLE_UNIT()
SI_UNIT($,.RADIAN.)
);
#517=(
LENGTH_UNIT()
NAMED_UNIT(*)
SI_UNIT(.MILLI.,.METRE.)
);
ENDSEC;
END-ISO-10303-21;
