ISO-10303-21;
HEADER;
/* Generated by software containing ST-Developer
 * from STEP Tools, Inc. (www.steptools.com) 
 */
/* OPTION: using custom schema-name function */

FILE_DESCRIPTION(
/* description */ (''),
/* implementation_level */ '2;1');

FILE_NAME(
/* name */ 'XVC509E10100N1SZ2_Basic.stp',
/* time_stamp */ '2022-07-21T10:47:58+05:00',
/* author */ (''),
/* organization */ (''),
/* preprocessor_version */ 'ST-DEVELOPER v16.7',
/* originating_system */ 'SIEMENS PLM Software NX 12.0',
/* authorisation */ '');

FILE_SCHEMA (('AUTOMOTIVE_DESIGN { 1 0 10303 214 3 1 1 1 }'));
ENDSEC;

DATA;
#10=CONSTRUCTIVE_GEOMETRY_REPRESENTATION_RELATIONSHIP(
'supplemental geometry','',#34,#11);
#11=CONSTRUCTIVE_GEOMETRY_REPRESENTATION('supplemental geometry',(#243,
#244,#245),#408);
#12=GEOMETRICALLY_BOUNDED_WIREFRAME_SHAPE_REPRESENTATION(
'inco1DF473D3coom-None',(#35),#408);
#13=PROPERTY_DEFINITION_REPRESENTATION(#17,#15);
#14=PROPERTY_DEFINITION_REPRESENTATION(#18,#16);
#15=REPRESENTATION('',(#19),#408);
#16=REPRESENTATION('',(#20),#408);
#17=PROPERTY_DEFINITION('pmi validation property','',#25);
#18=PROPERTY_DEFINITION('pmi validation property','',#25);
#19=VALUE_REPRESENTATION_ITEM('number of annotations',COUNT_MEASURE(0.));
#20=VALUE_REPRESENTATION_ITEM('number of views',COUNT_MEASURE(0.));
#21=SHAPE_REPRESENTATION_RELATIONSHIP('None',
'relationship between inco1DF473D3coom-None and inco1DF473D3coom-None',
#34,#23);
#22=SHAPE_REPRESENTATION_RELATIONSHIP('None',
'relationship between inco1DF473D3coom-None and inco1DF473D3coom-None',
#34,#12);
#23=ADVANCED_BREP_SHAPE_REPRESENTATION('inco1DF473D3coom-None',(#47,#48),
#408);
#24=SHAPE_DEFINITION_REPRESENTATION(#25,#34);
#25=PRODUCT_DEFINITION_SHAPE('','',#26);
#26=PRODUCT_DEFINITION(' ','',#28,#27);
#27=PRODUCT_DEFINITION_CONTEXT('part definition',#33,'design');
#28=PRODUCT_DEFINITION_FORMATION_WITH_SPECIFIED_SOURCE(' ',' ',#30,
 .NOT_KNOWN.);
#29=PRODUCT_RELATED_PRODUCT_CATEGORY('part','',(#30));
#30=PRODUCT('inco1DF473D3coom','inco1DF473D3coom',' ',(#31));
#31=PRODUCT_CONTEXT(' ',#33,'mechanical');
#32=APPLICATION_PROTOCOL_DEFINITION('international standard',
'automotive_design',2010,#33);
#33=APPLICATION_CONTEXT(
'core data for automotive mechanical design processes');
#34=SHAPE_REPRESENTATION('inco1DF473D3coom-None',(#242),#408);
#35=GEOMETRIC_CURVE_SET('None',(#345,#220));
#36=VERTEX_LOOP('',#180);
#37=SURFACE_STYLE_USAGE(.BOTH.,#39);
#38=SURFACE_STYLE_USAGE(.BOTH.,#40);
#39=SURFACE_SIDE_STYLE('',(#41));
#40=SURFACE_SIDE_STYLE('',(#42));
#41=SURFACE_STYLE_FILL_AREA(#43);
#42=SURFACE_STYLE_FILL_AREA(#44);
#43=FILL_AREA_STYLE('',(#45));
#44=FILL_AREA_STYLE('',(#46));
#45=FILL_AREA_STYLE_COLOUR('',#240);
#46=FILL_AREA_STYLE_COLOUR('',#241);
#47=MANIFOLD_SOLID_BREP('NOCUT',#49);
#48=MANIFOLD_SOLID_BREP('CUT',#50);
#49=CLOSED_SHELL('',(#67,#68,#69,#70,#71,#72,#73,#74,#75,#76,#77,#78,#79));
#50=CLOSED_SHELL('',(#80,#81,#82));
#51=TOROIDAL_SURFACE('',#256,2.7,0.499999999999999);
#52=TOROIDAL_SURFACE('',#264,3.91361257567267,0.3);
#53=CONICAL_SURFACE('',#252,2.,44.9999999999994);
#54=CONICAL_SURFACE('',#260,2.95565854503112,6.);
#55=CONICAL_SURFACE('',#262,3.54424226251891,2.19999999999996);
#56=CONICAL_SURFACE('',#272,5.11793922784697E-18,70.);
#57=CONICAL_SURFACE('',#274,0.75,45.);
#58=PLANE('',#250);
#59=PLANE('',#258);
#60=PLANE('',#265);
#61=PLANE('',#269);
#62=PLANE('',#270);
#63=PLANE('',#275);
#64=FACE_OUTER_BOUND('',#114,.T.);
#65=FACE_OUTER_BOUND('',#135,.T.);
#66=FACE_OUTER_BOUND('',#139,.T.);
#67=ADVANCED_FACE('',(#86,#87),#83,.T.);
#68=ADVANCED_FACE('',(#64),#58,.F.);
#69=ADVANCED_FACE('',(#88,#89),#53,.T.);
#70=ADVANCED_FACE('',(#90,#91),#84,.T.);
#71=ADVANCED_FACE('',(#92,#93),#51,.F.);
#72=ADVANCED_FACE('',(#94,#95),#59,.F.);
#73=ADVANCED_FACE('',(#96,#97),#54,.T.);
#74=ADVANCED_FACE('',(#98,#99),#55,.T.);
#75=ADVANCED_FACE('',(#100,#101),#52,.F.);
#76=ADVANCED_FACE('',(#102,#103),#60,.T.);
#77=ADVANCED_FACE('',(#104,#105),#85,.T.);
#78=ADVANCED_FACE('',(#106,#107),#61,.F.);
#79=ADVANCED_FACE('',(#65),#62,.T.);
#80=ADVANCED_FACE('',(#108,#109),#56,.T.);
#81=ADVANCED_FACE('',(#110,#111),#57,.T.);
#82=ADVANCED_FACE('',(#66),#63,.F.);
#83=CYLINDRICAL_SURFACE('',#248,4.85);
#84=CYLINDRICAL_SURFACE('',#254,2.2);
#85=CYLINDRICAL_SURFACE('',#268,5.);
#86=FACE_BOUND('',#112,.T.);
#87=FACE_BOUND('',#113,.T.);
#88=FACE_BOUND('',#115,.T.);
#89=FACE_BOUND('',#116,.T.);
#90=FACE_BOUND('',#117,.T.);
#91=FACE_BOUND('',#118,.T.);
#92=FACE_BOUND('',#119,.T.);
#93=FACE_BOUND('',#120,.T.);
#94=FACE_BOUND('',#121,.T.);
#95=FACE_BOUND('',#122,.T.);
#96=FACE_BOUND('',#123,.T.);
#97=FACE_BOUND('',#124,.T.);
#98=FACE_BOUND('',#125,.T.);
#99=FACE_BOUND('',#126,.T.);
#100=FACE_BOUND('',#127,.T.);
#101=FACE_BOUND('',#128,.T.);
#102=FACE_BOUND('',#129,.T.);
#103=FACE_BOUND('',#130,.T.);
#104=FACE_BOUND('',#131,.T.);
#105=FACE_BOUND('',#132,.T.);
#106=FACE_BOUND('',#133,.T.);
#107=FACE_BOUND('',#134,.T.);
#108=FACE_BOUND('',#36,.T.);
#109=FACE_BOUND('',#136,.T.);
#110=FACE_BOUND('',#137,.T.);
#111=FACE_BOUND('',#138,.T.);
#112=EDGE_LOOP('',(#140));
#113=EDGE_LOOP('',(#141));
#114=EDGE_LOOP('',(#142));
#115=EDGE_LOOP('',(#143));
#116=EDGE_LOOP('',(#144));
#117=EDGE_LOOP('',(#145));
#118=EDGE_LOOP('',(#146));
#119=EDGE_LOOP('',(#147));
#120=EDGE_LOOP('',(#148));
#121=EDGE_LOOP('',(#149));
#122=EDGE_LOOP('',(#150));
#123=EDGE_LOOP('',(#151));
#124=EDGE_LOOP('',(#152));
#125=EDGE_LOOP('',(#153));
#126=EDGE_LOOP('',(#154));
#127=EDGE_LOOP('',(#155));
#128=EDGE_LOOP('',(#156));
#129=EDGE_LOOP('',(#157));
#130=EDGE_LOOP('',(#158));
#131=EDGE_LOOP('',(#159));
#132=EDGE_LOOP('',(#160));
#133=EDGE_LOOP('',(#161));
#134=EDGE_LOOP('',(#162));
#135=EDGE_LOOP('',(#163));
#136=EDGE_LOOP('',(#164));
#137=EDGE_LOOP('',(#165));
#138=EDGE_LOOP('',(#166));
#139=EDGE_LOOP('',(#167));
#140=ORIENTED_EDGE('',*,*,#183,.T.);
#141=ORIENTED_EDGE('',*,*,#184,.T.);
#142=ORIENTED_EDGE('',*,*,#185,.F.);
#143=ORIENTED_EDGE('',*,*,#186,.F.);
#144=ORIENTED_EDGE('',*,*,#185,.T.);
#145=ORIENTED_EDGE('',*,*,#187,.F.);
#146=ORIENTED_EDGE('',*,*,#186,.T.);
#147=ORIENTED_EDGE('',*,*,#188,.F.);
#148=ORIENTED_EDGE('',*,*,#187,.T.);
#149=ORIENTED_EDGE('',*,*,#189,.F.);
#150=ORIENTED_EDGE('',*,*,#188,.T.);
#151=ORIENTED_EDGE('',*,*,#190,.F.);
#152=ORIENTED_EDGE('',*,*,#189,.T.);
#153=ORIENTED_EDGE('',*,*,#191,.F.);
#154=ORIENTED_EDGE('',*,*,#190,.T.);
#155=ORIENTED_EDGE('',*,*,#192,.F.);
#156=ORIENTED_EDGE('',*,*,#191,.T.);
#157=ORIENTED_EDGE('',*,*,#192,.T.);
#158=ORIENTED_EDGE('',*,*,#183,.F.);
#159=ORIENTED_EDGE('',*,*,#193,.F.);
#160=ORIENTED_EDGE('',*,*,#194,.T.);
#161=ORIENTED_EDGE('',*,*,#184,.F.);
#162=ORIENTED_EDGE('',*,*,#194,.F.);
#163=ORIENTED_EDGE('',*,*,#193,.T.);
#164=ORIENTED_EDGE('',*,*,#195,.F.);
#165=ORIENTED_EDGE('',*,*,#195,.T.);
#166=ORIENTED_EDGE('',*,*,#196,.F.);
#167=ORIENTED_EDGE('',*,*,#196,.T.);
#168=VERTEX_POINT('',#363);
#169=VERTEX_POINT('',#365);
#170=VERTEX_POINT('',#368);
#171=VERTEX_POINT('',#371);
#172=VERTEX_POINT('',#374);
#173=VERTEX_POINT('',#377);
#174=VERTEX_POINT('',#380);
#175=VERTEX_POINT('',#383);
#176=VERTEX_POINT('',#386);
#177=VERTEX_POINT('',#389);
#178=VERTEX_POINT('',#393);
#179=VERTEX_POINT('',#395);
#180=VERTEX_POINT('',#399);
#181=VERTEX_POINT('',#401);
#182=VERTEX_POINT('',#404);
#183=EDGE_CURVE('',#168,#168,#197,.T.);
#184=EDGE_CURVE('',#169,#169,#198,.T.);
#185=EDGE_CURVE('',#170,#170,#199,.T.);
#186=EDGE_CURVE('',#171,#171,#200,.T.);
#187=EDGE_CURVE('',#172,#172,#201,.T.);
#188=EDGE_CURVE('',#173,#173,#202,.T.);
#189=EDGE_CURVE('',#174,#174,#203,.T.);
#190=EDGE_CURVE('',#175,#175,#204,.T.);
#191=EDGE_CURVE('',#176,#176,#205,.T.);
#192=EDGE_CURVE('',#177,#177,#206,.T.);
#193=EDGE_CURVE('',#178,#178,#207,.T.);
#194=EDGE_CURVE('',#179,#179,#208,.T.);
#195=EDGE_CURVE('',#181,#181,#209,.T.);
#196=EDGE_CURVE('',#182,#182,#210,.T.);
#197=CIRCLE('',#246,4.85);
#198=CIRCLE('',#247,4.85);
#199=CIRCLE('',#249,2.);
#200=CIRCLE('',#251,2.2);
#201=CIRCLE('',#253,2.2);
#202=CIRCLE('',#255,2.7);
#203=CIRCLE('',#257,2.95565854503112);
#204=CIRCLE('',#259,3.54424226251891);
#205=CIRCLE('',#261,3.61383370074948);
#206=CIRCLE('',#263,3.91361257567267);
#207=CIRCLE('',#266,5.);
#208=CIRCLE('',#267,5.);
#209=CIRCLE('',#271,0.75);
#210=CIRCLE('',#273,5.);
#211=CURVE_STYLE('',#216,POSITIVE_LENGTH_MEASURE(0.18),#215);
#212=CURVE_STYLE('',#217,POSITIVE_LENGTH_MEASURE(0.18),#239);
#213=CURVE_STYLE('',#218,POSITIVE_LENGTH_MEASURE(0.18),#239);
#214=CURVE_STYLE('',#219,POSITIVE_LENGTH_MEASURE(0.18),#239);
#215=DRAUGHTING_PRE_DEFINED_COLOUR('blue');
#216=DRAUGHTING_PRE_DEFINED_CURVE_FONT('continuous');
#217=DRAUGHTING_PRE_DEFINED_CURVE_FONT('continuous');
#218=DRAUGHTING_PRE_DEFINED_CURVE_FONT('continuous');
#219=DRAUGHTING_PRE_DEFINED_CURVE_FONT('continuous');
#220=B_SPLINE_CURVE_WITH_KNOTS('CUTTING PART LINE',3,(#346,#347,#348,#349,
#350,#351,#352,#353,#354,#355,#356,#357,#358),.UNSPECIFIED.,.T.,.F.,(4,
3,3,3,4),(0.,0.276947770380496,0.325818505962345,0.693843536008988,1.),
 .UNSPECIFIED.);
#221=PRESENTATION_LAYER_ASSIGNMENT('1','Layer 1',(#345,#220,#243,#244,#245,
#47,#48));
#222=STYLED_ITEM('',(#229),#345);
#223=STYLED_ITEM('',(#230),#220);
#224=STYLED_ITEM('',(#231),#243);
#225=STYLED_ITEM('',(#232),#244);
#226=STYLED_ITEM('',(#233),#245);
#227=STYLED_ITEM('',(#234),#47);
#228=STYLED_ITEM('',(#235),#48);
#229=PRESENTATION_STYLE_ASSIGNMENT((#236));
#230=PRESENTATION_STYLE_ASSIGNMENT((#211));
#231=PRESENTATION_STYLE_ASSIGNMENT((#212));
#232=PRESENTATION_STYLE_ASSIGNMENT((#213));
#233=PRESENTATION_STYLE_ASSIGNMENT((#214));
#234=PRESENTATION_STYLE_ASSIGNMENT((#37));
#235=PRESENTATION_STYLE_ASSIGNMENT((#38));
#236=POINT_STYLE('',#237,POSITIVE_LENGTH_MEASURE(3.),#238);
#237=PRE_DEFINED_POINT_MARKER_SYMBOL('plus');
#238=COLOUR_RGB('Medium Royal',0.2,0.4,0.8);
#239=COLOUR_RGB('Medium Maroon',0.6,0.4,0.4);
#240=COLOUR_RGB('Medium Gray',0.490196078431373,0.490196078431373,0.490196078431373);
#241=COLOUR_RGB('Light Gray',0.8,0.8,0.8);
#242=AXIS2_PLACEMENT_3D('',#344,#276,#277);
#243=AXIS2_PLACEMENT_3D('PCS',#359,#278,#279);
#244=AXIS2_PLACEMENT_3D('MCS',#360,#280,#281);
#245=AXIS2_PLACEMENT_3D('CIP',#361,#282,#283);
#246=AXIS2_PLACEMENT_3D('',#362,#284,#285);
#247=AXIS2_PLACEMENT_3D('',#364,#286,#287);
#248=AXIS2_PLACEMENT_3D('',#366,#288,#289);
#249=AXIS2_PLACEMENT_3D('',#367,#290,#291);
#250=AXIS2_PLACEMENT_3D('',#369,#292,#293);
#251=AXIS2_PLACEMENT_3D('',#370,#294,#295);
#252=AXIS2_PLACEMENT_3D('',#372,#296,#297);
#253=AXIS2_PLACEMENT_3D('',#373,#298,#299);
#254=AXIS2_PLACEMENT_3D('',#375,#300,#301);
#255=AXIS2_PLACEMENT_3D('',#376,#302,#303);
#256=AXIS2_PLACEMENT_3D('',#378,#304,#305);
#257=AXIS2_PLACEMENT_3D('',#379,#306,#307);
#258=AXIS2_PLACEMENT_3D('',#381,#308,#309);
#259=AXIS2_PLACEMENT_3D('',#382,#310,#311);
#260=AXIS2_PLACEMENT_3D('',#384,#312,#313);
#261=AXIS2_PLACEMENT_3D('',#385,#314,#315);
#262=AXIS2_PLACEMENT_3D('',#387,#316,#317);
#263=AXIS2_PLACEMENT_3D('',#388,#318,#319);
#264=AXIS2_PLACEMENT_3D('',#390,#320,#321);
#265=AXIS2_PLACEMENT_3D('',#391,#322,#323);
#266=AXIS2_PLACEMENT_3D('',#392,#324,#325);
#267=AXIS2_PLACEMENT_3D('',#394,#326,#327);
#268=AXIS2_PLACEMENT_3D('',#396,#328,#329);
#269=AXIS2_PLACEMENT_3D('',#397,#330,#331);
#270=AXIS2_PLACEMENT_3D('',#398,#332,#333);
#271=AXIS2_PLACEMENT_3D('',#400,#334,#335);
#272=AXIS2_PLACEMENT_3D('',#402,#336,#337);
#273=AXIS2_PLACEMENT_3D('',#403,#338,#339);
#274=AXIS2_PLACEMENT_3D('',#405,#340,#341);
#275=AXIS2_PLACEMENT_3D('',#406,#342,#343);
#276=DIRECTION('',(0.,0.,1.));
#277=DIRECTION('',(1.,0.,0.));
#278=DIRECTION('',(0.,0.,1.));
#279=DIRECTION('',(1.,0.,0.));
#280=DIRECTION('',(0.,0.,1.));
#281=DIRECTION('',(1.,0.,0.));
#282=DIRECTION('',(0.,0.,1.));
#283=DIRECTION('',(1.,0.,0.));
#284=DIRECTION('',(0.,0.,-1.));
#285=DIRECTION('',(-1.,0.,0.));
#286=DIRECTION('',(0.,0.,1.));
#287=DIRECTION('',(-1.,0.,0.));
#288=DIRECTION('',(0.,0.,-1.));
#289=DIRECTION('',(1.,0.,0.));
#290=DIRECTION('',(0.,0.,-1.));
#291=DIRECTION('',(-1.,0.,0.));
#292=DIRECTION('',(0.,0.,-1.));
#293=DIRECTION('',(1.,0.,0.));
#294=DIRECTION('',(0.,0.,-1.));
#295=DIRECTION('',(-1.,0.,0.));
#296=DIRECTION('',(0.,0.,-1.));
#297=DIRECTION('',(1.,0.,-1.21188266784809E-17));
#298=DIRECTION('',(0.,0.,-1.));
#299=DIRECTION('',(-1.,0.,0.));
#300=DIRECTION('',(0.,0.,-1.));
#301=DIRECTION('',(1.,0.,0.));
#302=DIRECTION('',(0.,0.,-1.));
#303=DIRECTION('',(-1.,0.,0.));
#304=DIRECTION('',(0.,0.,-1.));
#305=DIRECTION('',(1.,0.,0.));
#306=DIRECTION('',(0.,0.,-1.));
#307=DIRECTION('',(-1.,0.,0.));
#308=DIRECTION('',(0.,0.,-1.));
#309=DIRECTION('',(1.,0.,0.));
#310=DIRECTION('',(0.,0.,-1.));
#311=DIRECTION('',(-1.,0.,0.));
#312=DIRECTION('',(0.,0.,-1.));
#313=DIRECTION('',(1.,0.,3.69227088241993E-16));
#314=DIRECTION('',(0.,0.,-1.));
#315=DIRECTION('',(-1.,0.,0.));
#316=DIRECTION('',(0.,0.,-1.));
#317=DIRECTION('',(1.,0.,-2.27380734350798E-16));
#318=DIRECTION('',(0.,0.,-1.));
#319=DIRECTION('',(-1.,0.,0.));
#320=DIRECTION('',(0.,0.,-1.));
#321=DIRECTION('',(1.,0.,0.));
#322=DIRECTION('',(0.,0.,1.));
#323=DIRECTION('',(-1.,0.,0.));
#324=DIRECTION('',(0.,0.,-1.));
#325=DIRECTION('',(-1.,0.,0.));
#326=DIRECTION('',(0.,0.,-1.));
#327=DIRECTION('',(-1.,0.,0.));
#328=DIRECTION('',(0.,0.,-1.));
#329=DIRECTION('',(1.,0.,0.));
#330=DIRECTION('',(0.,0.,-1.));
#331=DIRECTION('',(1.,0.,0.));
#332=DIRECTION('',(0.,0.,-1.));
#333=DIRECTION('',(1.,0.,0.));
#334=DIRECTION('',(0.,0.,1.));
#335=DIRECTION('',(1.,0.,0.));
#336=DIRECTION('',(0.,0.,1.));
#337=DIRECTION('',(-1.,0.,-1.13649787788905E-17));
#338=DIRECTION('',(0.,0.,1.));
#339=DIRECTION('',(1.,0.,0.));
#340=DIRECTION('',(0.,0.,1.));
#341=DIRECTION('',(-1.,0.,3.81353149852508E-17));
#342=DIRECTION('',(0.,0.,-1.));
#343=DIRECTION('',(1.,0.,0.));
#344=CARTESIAN_POINT('',(0.,0.,0.));
#345=CARTESIAN_POINT('CRP',(-0.75,0.,-11.5270223243));
#346=CARTESIAN_POINT('',(0.,0.,-7.27702232430035));
#347=CARTESIAN_POINT('',(0.,0.,-8.78468154953357));
#348=CARTESIAN_POINT('',(0.,0.,-10.2923407747668));
#349=CARTESIAN_POINT('',(0.,0.,-11.8));
#350=CARTESIAN_POINT('',(-0.249999999999954,0.,-11.7090074414335));
#351=CARTESIAN_POINT('',(-0.499999999999907,0.,-11.6180148828669));
#352=CARTESIAN_POINT('',(-0.749999999999861,0.,-11.5270223243004));
#353=CARTESIAN_POINT('',(-2.16666666666664,0.,-10.1103556576338));
#354=CARTESIAN_POINT('',(-3.58333333333334,0.,-8.69368899096706));
#355=CARTESIAN_POINT('',(-5.00000000000005,0.,-7.27702232430035));
#356=CARTESIAN_POINT('',(-3.33333333333337,0.,-7.27702232430035));
#357=CARTESIAN_POINT('',(-1.66666666666668,0.,-7.27702232430035));
#358=CARTESIAN_POINT('',(0.,0.,-7.27702232430035));
#359=CARTESIAN_POINT('',(0.,0.,0.));
#360=CARTESIAN_POINT('',(0.,0.,0.));
#361=CARTESIAN_POINT('',(0.,0.,-11.8001936078674));
#362=CARTESIAN_POINT('',(0.,0.,0.));
#363=CARTESIAN_POINT('',(-4.85,0.,0.));
#364=CARTESIAN_POINT('',(0.,0.,-3.8));
#365=CARTESIAN_POINT('',(-4.85,0.,-3.8));
#366=CARTESIAN_POINT('',(0.,0.,0.));
#367=CARTESIAN_POINT('',(0.,0.,11.2));
#368=CARTESIAN_POINT('',(-2.,0.,11.2));
#369=CARTESIAN_POINT('',(0.,0.,11.2));
#370=CARTESIAN_POINT('',(0.,0.,11.));
#371=CARTESIAN_POINT('',(-2.2,0.,11.));
#372=CARTESIAN_POINT('',(0.,0.,11.2));
#373=CARTESIAN_POINT('',(0.,0.,8.2));
#374=CARTESIAN_POINT('',(-2.2,0.,8.2));
#375=CARTESIAN_POINT('',(0.,0.,0.));
#376=CARTESIAN_POINT('',(0.,0.,7.7));
#377=CARTESIAN_POINT('',(-2.7,0.,7.7));
#378=CARTESIAN_POINT('',(0.,0.,8.2));
#379=CARTESIAN_POINT('',(0.,0.,7.7));
#380=CARTESIAN_POINT('',(-2.95565854503112,0.,7.7));
#381=CARTESIAN_POINT('',(0.,2.7,7.7));
#382=CARTESIAN_POINT('',(0.,0.,2.1));
#383=CARTESIAN_POINT('',(-3.54424226251891,0.,2.1));
#384=CARTESIAN_POINT('',(0.,0.,7.7));
#385=CARTESIAN_POINT('',(0.,0.,0.288483657273744));
#386=CARTESIAN_POINT('',(-3.61383370074948,0.,0.288483657273744));
#387=CARTESIAN_POINT('',(0.,0.,2.1));
#388=CARTESIAN_POINT('',(0.,0.,-3.79470760369927E-16));
#389=CARTESIAN_POINT('',(-3.91361257567267,0.,-3.79470760369927E-16));
#390=CARTESIAN_POINT('',(0.,0.,0.3));
#391=CARTESIAN_POINT('',(0.,4.85,0.));
#392=CARTESIAN_POINT('',(0.,0.,-7.277));
#393=CARTESIAN_POINT('',(-5.,0.,-7.277));
#394=CARTESIAN_POINT('',(0.,0.,-3.8));
#395=CARTESIAN_POINT('',(-5.,0.,-3.8));
#396=CARTESIAN_POINT('',(0.,0.,-7.277));
#397=CARTESIAN_POINT('',(0.,-8.88178419700125E-16,-3.8));
#398=CARTESIAN_POINT('',(0.,0.,-7.277));
#399=CARTESIAN_POINT('',(0.,0.,-11.8));
#400=CARTESIAN_POINT('',(-3.38184846615394E-16,0.,-11.5270223243004));
#401=CARTESIAN_POINT('',(0.75,0.,-11.5270223243004));
#402=CARTESIAN_POINT('',(-3.38184846615394E-16,0.,-11.8));
#403=CARTESIAN_POINT('',(-3.38184846615394E-16,0.,-7.27702232430035));
#404=CARTESIAN_POINT('',(5.,0.,-7.27702232430035));
#405=CARTESIAN_POINT('',(-3.38184846615394E-16,0.,-11.5270223243004));
#406=CARTESIAN_POINT('',(5.,0.,-7.27702232430035));
#407=MECHANICAL_DESIGN_GEOMETRIC_PRESENTATION_REPRESENTATION('',(#222,#223,
#224,#225,#226,#227,#228),#408);
#408=(
GEOMETRIC_REPRESENTATION_CONTEXT(3)
GLOBAL_UNCERTAINTY_ASSIGNED_CONTEXT((#409))
GLOBAL_UNIT_ASSIGNED_CONTEXT((#415,#411,#410))
REPRESENTATION_CONTEXT('XVC509E10100N1SZ2_Basic',
'TOP_LEVEL_ASSEMBLY_PART')
);
#409=UNCERTAINTY_MEASURE_WITH_UNIT(LENGTH_MEASURE(2.E-5),#415,
'DISTANCE_ACCURACY_VALUE','Maximum Tolerance applied to model');
#410=(
NAMED_UNIT(*)
SI_UNIT($,.STERADIAN.)
SOLID_ANGLE_UNIT()
);
#411=(
CONVERSION_BASED_UNIT('DEGREE',#413)
NAMED_UNIT(#412)
PLANE_ANGLE_UNIT()
);
#412=DIMENSIONAL_EXPONENTS(0.,0.,0.,0.,0.,0.,0.);
#413=PLANE_ANGLE_MEASURE_WITH_UNIT(PLANE_ANGLE_MEASURE(0.0174532925),#414);
#414=(
NAMED_UNIT(*)
PLANE_ANGLE_UNIT()
SI_UNIT($,.RADIAN.)
);
#415=(
LENGTH_UNIT()
NAMED_UNIT(*)
SI_UNIT(.MILLI.,.METRE.)
);
ENDSEC;
END-ISO-10303-21;
