ISO-10303-21;
HEADER;
/* Generated by software containing ST-Developer
 * from STEP Tools, Inc. (www.steptools.com) 
 */
/* OPTION: using custom schema-name function */

FILE_DESCRIPTION(
/* description */ (''),
/* implementation_level */ '2;1');

FILE_NAME(
/* name */ 'XVC506E10100N1SZ2_Basic.stp',
/* time_stamp */ '2022-08-04T11:32:24+05:00',
/* author */ (''),
/* organization */ (''),
/* preprocessor_version */ 'ST-DEVELOPER v16.7',
/* originating_system */ 'SIEMENS PLM Software NX 12.0',
/* authorisation */ '');

FILE_SCHEMA (('AUTOMOTIVE_DESIGN { 1 0 10303 214 3 1 1 1 }'));
ENDSEC;

DATA;
#10=CONSTRUCTIVE_GEOMETRY_REPRESENTATION_RELATIONSHIP(
'supplemental geometry','',#34,#11);
#11=CONSTRUCTIVE_GEOMETRY_REPRESENTATION('supplemental geometry',(#255,
#256,#257),#423);
#12=GEOMETRICALLY_BOUNDED_WIREFRAME_SHAPE_REPRESENTATION(
'inpu3ADCDC160r7p-None',(#35),#423);
#13=PROPERTY_DEFINITION_REPRESENTATION(#17,#15);
#14=PROPERTY_DEFINITION_REPRESENTATION(#18,#16);
#15=REPRESENTATION('',(#19),#423);
#16=REPRESENTATION('',(#20),#423);
#17=PROPERTY_DEFINITION('pmi validation property','',#25);
#18=PROPERTY_DEFINITION('pmi validation property','',#25);
#19=VALUE_REPRESENTATION_ITEM('number of annotations',COUNT_MEASURE(0.));
#20=VALUE_REPRESENTATION_ITEM('number of views',COUNT_MEASURE(0.));
#21=SHAPE_REPRESENTATION_RELATIONSHIP('None',
'relationship between inpu3ADCDC160r7p-None and inpu3ADCDC160r7p-None',
#34,#23);
#22=SHAPE_REPRESENTATION_RELATIONSHIP('None',
'relationship between inpu3ADCDC160r7p-None and inpu3ADCDC160r7p-None',
#34,#12);
#23=ADVANCED_BREP_SHAPE_REPRESENTATION('inpu3ADCDC160r7p-None',(#47,#48),
#423);
#24=SHAPE_DEFINITION_REPRESENTATION(#25,#34);
#25=PRODUCT_DEFINITION_SHAPE('','',#26);
#26=PRODUCT_DEFINITION(' ','',#28,#27);
#27=PRODUCT_DEFINITION_CONTEXT('part definition',#33,'design');
#28=PRODUCT_DEFINITION_FORMATION_WITH_SPECIFIED_SOURCE(' ',' ',#30,
 .NOT_KNOWN.);
#29=PRODUCT_RELATED_PRODUCT_CATEGORY('part','',(#30));
#30=PRODUCT('inpu3ADCDC160r7p','inpu3ADCDC160r7p',' ',(#31));
#31=PRODUCT_CONTEXT(' ',#33,'mechanical');
#32=APPLICATION_PROTOCOL_DEFINITION('international standard',
'automotive_design',2010,#33);
#33=APPLICATION_CONTEXT(
'core data for automotive mechanical design processes');
#34=SHAPE_REPRESENTATION('inpu3ADCDC160r7p-None',(#254),#423);
#35=GEOMETRIC_CURVE_SET('None',(#357,#358,#359,#360,#220));
#36=VERTEX_LOOP('',#182);
#37=SURFACE_STYLE_USAGE(.BOTH.,#39);
#38=SURFACE_STYLE_USAGE(.BOTH.,#40);
#39=SURFACE_SIDE_STYLE('',(#41));
#40=SURFACE_SIDE_STYLE('',(#42));
#41=SURFACE_STYLE_FILL_AREA(#43);
#42=SURFACE_STYLE_FILL_AREA(#44);
#43=FILL_AREA_STYLE('',(#45));
#44=FILL_AREA_STYLE('',(#46));
#45=FILL_AREA_STYLE_COLOUR('',#252);
#46=FILL_AREA_STYLE_COLOUR('',#253);
#47=MANIFOLD_SOLID_BREP('NOCUT',#49);
#48=MANIFOLD_SOLID_BREP('CUT',#50);
#49=CLOSED_SHELL('',(#67,#68,#69,#70,#71,#72,#73,#74,#75,#76,#77,#78,#79));
#50=CLOSED_SHELL('',(#80,#81,#82));
#51=TOROIDAL_SURFACE('',#268,2.7,0.499999999999999);
#52=TOROIDAL_SURFACE('',#276,3.91361257567267,0.3);
#53=CONICAL_SURFACE('',#264,2.,44.9999999999994);
#54=CONICAL_SURFACE('',#272,2.95565854503112,6.);
#55=CONICAL_SURFACE('',#274,3.54424226251891,2.19999999999996);
#56=CONICAL_SURFACE('',#286,5.,30.);
#57=CONICAL_SURFACE('',#287,0.749999999999997,70.0000000000001);
#58=PLANE('',#262);
#59=PLANE('',#270);
#60=PLANE('',#277);
#61=PLANE('',#281);
#62=PLANE('',#282);
#63=PLANE('',#284);
#64=FACE_OUTER_BOUND('',#114,.T.);
#65=FACE_OUTER_BOUND('',#135,.T.);
#66=FACE_OUTER_BOUND('',#136,.T.);
#67=ADVANCED_FACE('',(#86,#87),#83,.T.);
#68=ADVANCED_FACE('',(#64),#58,.F.);
#69=ADVANCED_FACE('',(#88,#89),#53,.T.);
#70=ADVANCED_FACE('',(#90,#91),#84,.T.);
#71=ADVANCED_FACE('',(#92,#93),#51,.F.);
#72=ADVANCED_FACE('',(#94,#95),#59,.F.);
#73=ADVANCED_FACE('',(#96,#97),#54,.T.);
#74=ADVANCED_FACE('',(#98,#99),#55,.T.);
#75=ADVANCED_FACE('',(#100,#101),#52,.F.);
#76=ADVANCED_FACE('',(#102,#103),#60,.T.);
#77=ADVANCED_FACE('',(#104,#105),#85,.T.);
#78=ADVANCED_FACE('',(#106,#107),#61,.F.);
#79=ADVANCED_FACE('',(#65),#62,.F.);
#80=ADVANCED_FACE('',(#66),#63,.T.);
#81=ADVANCED_FACE('',(#108,#109),#56,.T.);
#82=ADVANCED_FACE('',(#110,#111),#57,.T.);
#83=CYLINDRICAL_SURFACE('',#260,4.85);
#84=CYLINDRICAL_SURFACE('',#266,2.2);
#85=CYLINDRICAL_SURFACE('',#280,5.);
#86=FACE_BOUND('',#112,.T.);
#87=FACE_BOUND('',#113,.T.);
#88=FACE_BOUND('',#115,.T.);
#89=FACE_BOUND('',#116,.T.);
#90=FACE_BOUND('',#117,.T.);
#91=FACE_BOUND('',#118,.T.);
#92=FACE_BOUND('',#119,.T.);
#93=FACE_BOUND('',#120,.T.);
#94=FACE_BOUND('',#121,.T.);
#95=FACE_BOUND('',#122,.T.);
#96=FACE_BOUND('',#123,.T.);
#97=FACE_BOUND('',#124,.T.);
#98=FACE_BOUND('',#125,.T.);
#99=FACE_BOUND('',#126,.T.);
#100=FACE_BOUND('',#127,.T.);
#101=FACE_BOUND('',#128,.T.);
#102=FACE_BOUND('',#129,.T.);
#103=FACE_BOUND('',#130,.T.);
#104=FACE_BOUND('',#131,.T.);
#105=FACE_BOUND('',#132,.T.);
#106=FACE_BOUND('',#133,.T.);
#107=FACE_BOUND('',#134,.T.);
#108=FACE_BOUND('',#137,.T.);
#109=FACE_BOUND('',#138,.T.);
#110=FACE_BOUND('',#139,.T.);
#111=FACE_BOUND('',#36,.T.);
#112=EDGE_LOOP('',(#140));
#113=EDGE_LOOP('',(#141));
#114=EDGE_LOOP('',(#142));
#115=EDGE_LOOP('',(#143));
#116=EDGE_LOOP('',(#144));
#117=EDGE_LOOP('',(#145));
#118=EDGE_LOOP('',(#146));
#119=EDGE_LOOP('',(#147));
#120=EDGE_LOOP('',(#148));
#121=EDGE_LOOP('',(#149));
#122=EDGE_LOOP('',(#150));
#123=EDGE_LOOP('',(#151));
#124=EDGE_LOOP('',(#152));
#125=EDGE_LOOP('',(#153));
#126=EDGE_LOOP('',(#154));
#127=EDGE_LOOP('',(#155));
#128=EDGE_LOOP('',(#156));
#129=EDGE_LOOP('',(#157));
#130=EDGE_LOOP('',(#158));
#131=EDGE_LOOP('',(#159));
#132=EDGE_LOOP('',(#160));
#133=EDGE_LOOP('',(#161));
#134=EDGE_LOOP('',(#162));
#135=EDGE_LOOP('',(#163));
#136=EDGE_LOOP('',(#164));
#137=EDGE_LOOP('',(#165));
#138=EDGE_LOOP('',(#166));
#139=EDGE_LOOP('',(#167));
#140=ORIENTED_EDGE('',*,*,#183,.T.);
#141=ORIENTED_EDGE('',*,*,#184,.T.);
#142=ORIENTED_EDGE('',*,*,#185,.F.);
#143=ORIENTED_EDGE('',*,*,#186,.F.);
#144=ORIENTED_EDGE('',*,*,#185,.T.);
#145=ORIENTED_EDGE('',*,*,#187,.F.);
#146=ORIENTED_EDGE('',*,*,#186,.T.);
#147=ORIENTED_EDGE('',*,*,#188,.F.);
#148=ORIENTED_EDGE('',*,*,#187,.T.);
#149=ORIENTED_EDGE('',*,*,#189,.F.);
#150=ORIENTED_EDGE('',*,*,#188,.T.);
#151=ORIENTED_EDGE('',*,*,#190,.F.);
#152=ORIENTED_EDGE('',*,*,#189,.T.);
#153=ORIENTED_EDGE('',*,*,#191,.F.);
#154=ORIENTED_EDGE('',*,*,#190,.T.);
#155=ORIENTED_EDGE('',*,*,#192,.F.);
#156=ORIENTED_EDGE('',*,*,#191,.T.);
#157=ORIENTED_EDGE('',*,*,#192,.T.);
#158=ORIENTED_EDGE('',*,*,#183,.F.);
#159=ORIENTED_EDGE('',*,*,#193,.F.);
#160=ORIENTED_EDGE('',*,*,#194,.T.);
#161=ORIENTED_EDGE('',*,*,#184,.F.);
#162=ORIENTED_EDGE('',*,*,#194,.F.);
#163=ORIENTED_EDGE('',*,*,#193,.T.);
#164=ORIENTED_EDGE('',*,*,#195,.T.);
#165=ORIENTED_EDGE('',*,*,#196,.T.);
#166=ORIENTED_EDGE('',*,*,#195,.F.);
#167=ORIENTED_EDGE('',*,*,#196,.F.);
#168=VERTEX_POINT('',#378);
#169=VERTEX_POINT('',#380);
#170=VERTEX_POINT('',#383);
#171=VERTEX_POINT('',#386);
#172=VERTEX_POINT('',#389);
#173=VERTEX_POINT('',#392);
#174=VERTEX_POINT('',#395);
#175=VERTEX_POINT('',#398);
#176=VERTEX_POINT('',#401);
#177=VERTEX_POINT('',#404);
#178=VERTEX_POINT('',#408);
#179=VERTEX_POINT('',#410);
#180=VERTEX_POINT('',#415);
#181=VERTEX_POINT('',#418);
#182=VERTEX_POINT('',#420);
#183=EDGE_CURVE('',#168,#168,#197,.T.);
#184=EDGE_CURVE('',#169,#169,#198,.T.);
#185=EDGE_CURVE('',#170,#170,#199,.T.);
#186=EDGE_CURVE('',#171,#171,#200,.T.);
#187=EDGE_CURVE('',#172,#172,#201,.T.);
#188=EDGE_CURVE('',#173,#173,#202,.T.);
#189=EDGE_CURVE('',#174,#174,#203,.T.);
#190=EDGE_CURVE('',#175,#175,#204,.T.);
#191=EDGE_CURVE('',#176,#176,#205,.T.);
#192=EDGE_CURVE('',#177,#177,#206,.T.);
#193=EDGE_CURVE('',#178,#178,#207,.T.);
#194=EDGE_CURVE('',#179,#179,#208,.T.);
#195=EDGE_CURVE('',#180,#180,#209,.T.);
#196=EDGE_CURVE('',#181,#181,#210,.T.);
#197=CIRCLE('',#258,4.85);
#198=CIRCLE('',#259,4.85);
#199=CIRCLE('',#261,2.);
#200=CIRCLE('',#263,2.2);
#201=CIRCLE('',#265,2.2);
#202=CIRCLE('',#267,2.7);
#203=CIRCLE('',#269,2.95565854503112);
#204=CIRCLE('',#271,3.54424226251891);
#205=CIRCLE('',#273,3.61383370074948);
#206=CIRCLE('',#275,3.91361257567267);
#207=CIRCLE('',#278,5.);
#208=CIRCLE('',#279,5.);
#209=CIRCLE('',#283,4.92436711473616);
#210=CIRCLE('',#285,0.749999999999997);
#211=CURVE_STYLE('',#216,POSITIVE_LENGTH_MEASURE(0.18),#215);
#212=CURVE_STYLE('',#217,POSITIVE_LENGTH_MEASURE(0.18),#251);
#213=CURVE_STYLE('',#218,POSITIVE_LENGTH_MEASURE(0.18),#251);
#214=CURVE_STYLE('',#219,POSITIVE_LENGTH_MEASURE(0.18),#251);
#215=DRAUGHTING_PRE_DEFINED_COLOUR('blue');
#216=DRAUGHTING_PRE_DEFINED_CURVE_FONT('continuous');
#217=DRAUGHTING_PRE_DEFINED_CURVE_FONT('continuous');
#218=DRAUGHTING_PRE_DEFINED_CURVE_FONT('continuous');
#219=DRAUGHTING_PRE_DEFINED_CURVE_FONT('continuous');
#220=B_SPLINE_CURVE_WITH_KNOTS('CUTTING PART LINE',3,(#361,#362,#363,#364,
#365,#366,#367,#368,#369,#370,#371,#372,#373),.UNSPECIFIED.,.T.,.F.,(1,
3,3,3,3,3,1),(-0.347781804922186,0.,0.228250178893088,0.615223781186647,
0.652218195077814,1.,1.22825017889309),.UNSPECIFIED.);
#221=PRESENTATION_LAYER_ASSIGNMENT('1','Layer 1',(#357,#358,#359,#360,#220,
#255,#256,#257,#47,#48));
#222=STYLED_ITEM('',(#232),#357);
#223=STYLED_ITEM('',(#233),#358);
#224=STYLED_ITEM('',(#234),#359);
#225=STYLED_ITEM('',(#235),#360);
#226=STYLED_ITEM('',(#236),#220);
#227=STYLED_ITEM('',(#237),#255);
#228=STYLED_ITEM('',(#238),#256);
#229=STYLED_ITEM('',(#239),#257);
#230=STYLED_ITEM('',(#240),#47);
#231=STYLED_ITEM('',(#241),#48);
#232=PRESENTATION_STYLE_ASSIGNMENT((#242));
#233=PRESENTATION_STYLE_ASSIGNMENT((#243));
#234=PRESENTATION_STYLE_ASSIGNMENT((#244));
#235=PRESENTATION_STYLE_ASSIGNMENT((#245));
#236=PRESENTATION_STYLE_ASSIGNMENT((#211));
#237=PRESENTATION_STYLE_ASSIGNMENT((#212));
#238=PRESENTATION_STYLE_ASSIGNMENT((#213));
#239=PRESENTATION_STYLE_ASSIGNMENT((#214));
#240=PRESENTATION_STYLE_ASSIGNMENT((#37));
#241=PRESENTATION_STYLE_ASSIGNMENT((#38));
#242=POINT_STYLE('',#246,POSITIVE_LENGTH_MEASURE(3.),#250);
#243=POINT_STYLE('',#247,POSITIVE_LENGTH_MEASURE(3.),#251);
#244=POINT_STYLE('',#248,POSITIVE_LENGTH_MEASURE(3.),#251);
#245=POINT_STYLE('',#249,POSITIVE_LENGTH_MEASURE(3.),#251);
#246=PRE_DEFINED_POINT_MARKER_SYMBOL('plus');
#247=PRE_DEFINED_POINT_MARKER_SYMBOL('plus');
#248=PRE_DEFINED_POINT_MARKER_SYMBOL('plus');
#249=PRE_DEFINED_POINT_MARKER_SYMBOL('plus');
#250=COLOUR_RGB('Medium Royal',0.2,0.4,0.8);
#251=COLOUR_RGB('Medium Maroon',0.6,0.4,0.4);
#252=COLOUR_RGB('Medium Gray',0.490196078431373,0.490196078431373,0.490196078431373);
#253=COLOUR_RGB('Light Gray',0.8,0.8,0.8);
#254=AXIS2_PLACEMENT_3D('',#356,#288,#289);
#255=AXIS2_PLACEMENT_3D('PCS',#374,#290,#291);
#256=AXIS2_PLACEMENT_3D('MCS',#375,#292,#293);
#257=AXIS2_PLACEMENT_3D('CIP',#376,#294,#295);
#258=AXIS2_PLACEMENT_3D('',#377,#296,#297);
#259=AXIS2_PLACEMENT_3D('',#379,#298,#299);
#260=AXIS2_PLACEMENT_3D('',#381,#300,#301);
#261=AXIS2_PLACEMENT_3D('',#382,#302,#303);
#262=AXIS2_PLACEMENT_3D('',#384,#304,#305);
#263=AXIS2_PLACEMENT_3D('',#385,#306,#307);
#264=AXIS2_PLACEMENT_3D('',#387,#308,#309);
#265=AXIS2_PLACEMENT_3D('',#388,#310,#311);
#266=AXIS2_PLACEMENT_3D('',#390,#312,#313);
#267=AXIS2_PLACEMENT_3D('',#391,#314,#315);
#268=AXIS2_PLACEMENT_3D('',#393,#316,#317);
#269=AXIS2_PLACEMENT_3D('',#394,#318,#319);
#270=AXIS2_PLACEMENT_3D('',#396,#320,#321);
#271=AXIS2_PLACEMENT_3D('',#397,#322,#323);
#272=AXIS2_PLACEMENT_3D('',#399,#324,#325);
#273=AXIS2_PLACEMENT_3D('',#400,#326,#327);
#274=AXIS2_PLACEMENT_3D('',#402,#328,#329);
#275=AXIS2_PLACEMENT_3D('',#403,#330,#331);
#276=AXIS2_PLACEMENT_3D('',#405,#332,#333);
#277=AXIS2_PLACEMENT_3D('',#406,#334,#335);
#278=AXIS2_PLACEMENT_3D('',#407,#336,#337);
#279=AXIS2_PLACEMENT_3D('',#409,#338,#339);
#280=AXIS2_PLACEMENT_3D('',#411,#340,#341);
#281=AXIS2_PLACEMENT_3D('',#412,#342,#343);
#282=AXIS2_PLACEMENT_3D('',#413,#344,#345);
#283=AXIS2_PLACEMENT_3D('',#414,#346,#347);
#284=AXIS2_PLACEMENT_3D('',#416,#348,#349);
#285=AXIS2_PLACEMENT_3D('',#417,#350,#351);
#286=AXIS2_PLACEMENT_3D('',#419,#352,#353);
#287=AXIS2_PLACEMENT_3D('',#421,#354,#355);
#288=DIRECTION('',(0.,0.,1.));
#289=DIRECTION('',(1.,0.,0.));
#290=DIRECTION('',(0.,0.,1.));
#291=DIRECTION('',(1.,0.,0.));
#292=DIRECTION('',(0.,0.,1.));
#293=DIRECTION('',(1.,0.,0.));
#294=DIRECTION('',(0.,0.,1.));
#295=DIRECTION('',(1.,0.,0.));
#296=DIRECTION('',(0.,0.,-1.));
#297=DIRECTION('',(-1.,0.,0.));
#298=DIRECTION('',(0.,0.,1.));
#299=DIRECTION('',(-1.,0.,0.));
#300=DIRECTION('',(0.,0.,-1.));
#301=DIRECTION('',(1.,0.,0.));
#302=DIRECTION('',(0.,0.,-1.));
#303=DIRECTION('',(-1.,0.,0.));
#304=DIRECTION('',(0.,0.,-1.));
#305=DIRECTION('',(1.,0.,0.));
#306=DIRECTION('',(0.,0.,-1.));
#307=DIRECTION('',(-1.,0.,0.));
#308=DIRECTION('',(0.,0.,-1.));
#309=DIRECTION('',(1.,0.,-1.21188266784809E-17));
#310=DIRECTION('',(0.,0.,-1.));
#311=DIRECTION('',(-1.,0.,0.));
#312=DIRECTION('',(0.,0.,-1.));
#313=DIRECTION('',(1.,0.,0.));
#314=DIRECTION('',(0.,0.,-1.));
#315=DIRECTION('',(-1.,0.,0.));
#316=DIRECTION('',(0.,0.,-1.));
#317=DIRECTION('',(1.,0.,0.));
#318=DIRECTION('',(0.,0.,-1.));
#319=DIRECTION('',(-1.,0.,0.));
#320=DIRECTION('',(0.,0.,-1.));
#321=DIRECTION('',(1.,0.,0.));
#322=DIRECTION('',(0.,0.,-1.));
#323=DIRECTION('',(-1.,0.,0.));
#324=DIRECTION('',(0.,0.,-1.));
#325=DIRECTION('',(1.,0.,3.69227088241993E-16));
#326=DIRECTION('',(0.,0.,-1.));
#327=DIRECTION('',(-1.,0.,0.));
#328=DIRECTION('',(0.,0.,-1.));
#329=DIRECTION('',(1.,0.,-2.27380734350798E-16));
#330=DIRECTION('',(0.,0.,-1.));
#331=DIRECTION('',(-1.,0.,0.));
#332=DIRECTION('',(0.,0.,-1.));
#333=DIRECTION('',(1.,0.,0.));
#334=DIRECTION('',(0.,0.,1.));
#335=DIRECTION('',(-1.,0.,0.));
#336=DIRECTION('',(0.,0.,-1.));
#337=DIRECTION('',(1.,0.,0.));
#338=DIRECTION('',(0.,0.,-1.));
#339=DIRECTION('',(-1.,0.,0.));
#340=DIRECTION('',(0.,0.,-1.));
#341=DIRECTION('',(1.,0.,0.));
#342=DIRECTION('',(0.,0.,-1.));
#343=DIRECTION('',(1.,0.,0.));
#344=DIRECTION('',(0.,0.,1.));
#345=DIRECTION('',(-1.,0.,0.));
#346=DIRECTION('',(0.,0.,1.));
#347=DIRECTION('',(1.,0.,0.));
#348=DIRECTION('',(0.,0.,1.));
#349=DIRECTION('',(-1.,0.,0.));
#350=DIRECTION('',(0.,0.,1.));
#351=DIRECTION('',(1.,0.,0.));
#352=DIRECTION('',(0.,0.,1.));
#353=DIRECTION('',(-1.,0.,5.51083875177552E-17));
#354=DIRECTION('',(0.,0.,1.));
#355=DIRECTION('',(-1.,0.,1.38867388489498E-17));
#356=CARTESIAN_POINT('',(0.,0.,0.));
#357=CARTESIAN_POINT('CRP',(-0.75,0.,-11.5270223243));
#358=CARTESIAN_POINT('',(0.,0.,0.));
#359=CARTESIAN_POINT('',(0.,0.,0.));
#360=CARTESIAN_POINT('',(0.,0.,-11.8001936078674));
#361=CARTESIAN_POINT('',(0.,0.,-4.29680639213263));
#362=CARTESIAN_POINT('',(-1.64145570491205,0.,-4.29680639213263));
#363=CARTESIAN_POINT('',(-3.28291140982411,0.,-4.29680639213263));
#364=CARTESIAN_POINT('',(-4.92436711473616,0.,-4.29680639213263));
#365=CARTESIAN_POINT('',(-3.5329114098241,0.,-6.70687836952188));
#366=CARTESIAN_POINT('',(-2.14145570491204,0.,-9.11695034691114));
#367=CARTESIAN_POINT('',(-0.74999999999999,0.,-11.5270223243004));
#368=CARTESIAN_POINT('',(-0.499999999999998,0.,-11.6180148828669));
#369=CARTESIAN_POINT('',(-0.249999999999999,0.,-11.7090074414335));
#370=CARTESIAN_POINT('',(0.,0.,-11.8));
#371=CARTESIAN_POINT('',(0.,0.,-9.29893546404424));
#372=CARTESIAN_POINT('',(0.,0.,-6.79787092808844));
#373=CARTESIAN_POINT('',(0.,0.,-4.29680639213263));
#374=CARTESIAN_POINT('',(0.,0.,0.));
#375=CARTESIAN_POINT('',(0.,0.,0.));
#376=CARTESIAN_POINT('',(0.,0.,-11.8001936078674));
#377=CARTESIAN_POINT('',(0.,0.,0.));
#378=CARTESIAN_POINT('',(-4.85,0.,0.));
#379=CARTESIAN_POINT('',(0.,0.,-4.));
#380=CARTESIAN_POINT('',(-4.85,0.,-4.));
#381=CARTESIAN_POINT('',(0.,0.,0.));
#382=CARTESIAN_POINT('',(0.,0.,11.2));
#383=CARTESIAN_POINT('',(-2.,0.,11.2));
#384=CARTESIAN_POINT('',(0.,0.,11.2));
#385=CARTESIAN_POINT('',(0.,0.,11.));
#386=CARTESIAN_POINT('',(-2.2,0.,11.));
#387=CARTESIAN_POINT('',(0.,0.,11.2));
#388=CARTESIAN_POINT('',(0.,0.,8.2));
#389=CARTESIAN_POINT('',(-2.2,0.,8.2));
#390=CARTESIAN_POINT('',(0.,0.,0.));
#391=CARTESIAN_POINT('',(0.,0.,7.7));
#392=CARTESIAN_POINT('',(-2.7,0.,7.7));
#393=CARTESIAN_POINT('',(0.,0.,8.2));
#394=CARTESIAN_POINT('',(0.,0.,7.7));
#395=CARTESIAN_POINT('',(-2.95565854503112,0.,7.7));
#396=CARTESIAN_POINT('',(0.,2.7,7.7));
#397=CARTESIAN_POINT('',(0.,0.,2.1));
#398=CARTESIAN_POINT('',(-3.54424226251891,0.,2.1));
#399=CARTESIAN_POINT('',(0.,0.,7.7));
#400=CARTESIAN_POINT('',(0.,0.,0.288483657273744));
#401=CARTESIAN_POINT('',(-3.61383370074948,0.,0.288483657273744));
#402=CARTESIAN_POINT('',(0.,0.,2.1));
#403=CARTESIAN_POINT('',(0.,0.,-3.79470760369927E-16));
#404=CARTESIAN_POINT('',(-3.91361257567267,0.,-3.79470760369927E-16));
#405=CARTESIAN_POINT('',(0.,0.,0.3));
#406=CARTESIAN_POINT('',(0.,4.85,0.));
#407=CARTESIAN_POINT('',(0.,0.,-4.29680639213263));
#408=CARTESIAN_POINT('',(5.,0.,-4.29680639213263));
#409=CARTESIAN_POINT('',(0.,0.,-4.));
#410=CARTESIAN_POINT('',(-5.,0.,-4.));
#411=CARTESIAN_POINT('',(0.,0.,-4.1658));
#412=CARTESIAN_POINT('',(0.,0.,-4.));
#413=CARTESIAN_POINT('',(0.,0.,-4.29680639213263));
#414=CARTESIAN_POINT('',(0.,0.,-4.29680639213263));
#415=CARTESIAN_POINT('',(4.92436711473616,0.,-4.29680639213263));
#416=CARTESIAN_POINT('',(0.,0.,-4.29680639213263));
#417=CARTESIAN_POINT('',(0.,0.,-11.5270223243004));
#418=CARTESIAN_POINT('',(0.749999999999997,0.,-11.5270223243004));
#419=CARTESIAN_POINT('',(0.,0.,-4.16580639213263));
#420=CARTESIAN_POINT('',(0.,0.,-11.8000000000001));
#421=CARTESIAN_POINT('',(0.,0.,-11.5270223243004));
#422=MECHANICAL_DESIGN_GEOMETRIC_PRESENTATION_REPRESENTATION('',(#222,#223,
#224,#225,#226,#227,#228,#229,#230,#231),#423);
#423=(
GEOMETRIC_REPRESENTATION_CONTEXT(3)
GLOBAL_UNCERTAINTY_ASSIGNED_CONTEXT((#424))
GLOBAL_UNIT_ASSIGNED_CONTEXT((#430,#426,#425))
REPRESENTATION_CONTEXT('XVC506E10100N1SZ2_Basic',
'TOP_LEVEL_ASSEMBLY_PART')
);
#424=UNCERTAINTY_MEASURE_WITH_UNIT(LENGTH_MEASURE(2.E-5),#430,
'DISTANCE_ACCURACY_VALUE','Maximum Tolerance applied to model');
#425=(
NAMED_UNIT(*)
SI_UNIT($,.STERADIAN.)
SOLID_ANGLE_UNIT()
);
#426=(
CONVERSION_BASED_UNIT('DEGREE',#428)
NAMED_UNIT(#427)
PLANE_ANGLE_UNIT()
);
#427=DIMENSIONAL_EXPONENTS(0.,0.,0.,0.,0.,0.,0.);
#428=PLANE_ANGLE_MEASURE_WITH_UNIT(PLANE_ANGLE_MEASURE(0.0174532925),#429);
#429=(
NAMED_UNIT(*)
PLANE_ANGLE_UNIT()
SI_UNIT($,.RADIAN.)
);
#430=(
LENGTH_UNIT()
NAMED_UNIT(*)
SI_UNIT(.MILLI.,.METRE.)
);
ENDSEC;
END-ISO-10303-21;
