ISO-10303-21;
HEADER;
/* Generated by software containing ST-Developer
 * from STEP Tools, Inc. (www.steptools.com) 
 */
/* OPTION: using custom schema-name function */

FILE_DESCRIPTION(
/* description */ (''),
/* implementation_level */ '2;1');

FILE_NAME(
/* name */ 'XVB510E12.500D1BZ2_Basic.stp',
/* time_stamp */ '2022-07-21T09:06:49+06:00',
/* author */ (''),
/* organization */ (''),
/* preprocessor_version */ 'ST-DEVELOPER v16.7',
/* originating_system */ 'SIEMENS PLM Software NX 12.0',
/* authorisation */ '');

FILE_SCHEMA (('AUTOMOTIVE_DESIGN { 1 0 10303 214 3 1 1 1 }'));
ENDSEC;

DATA;
#10=CONSTRUCTIVE_GEOMETRY_REPRESENTATION_RELATIONSHIP(
'supplemental geometry','',#34,#11);
#11=CONSTRUCTIVE_GEOMETRY_REPRESENTATION('supplemental geometry',(#186,
#187,#188),#305);
#12=GEOMETRICALLY_BOUNDED_WIREFRAME_SHAPE_REPRESENTATION(
'inco1DF473D3cole-None',(#35),#305);
#13=PROPERTY_DEFINITION_REPRESENTATION(#17,#15);
#14=PROPERTY_DEFINITION_REPRESENTATION(#18,#16);
#15=REPRESENTATION('',(#19),#305);
#16=REPRESENTATION('',(#20),#305);
#17=PROPERTY_DEFINITION('pmi validation property','',#25);
#18=PROPERTY_DEFINITION('pmi validation property','',#25);
#19=VALUE_REPRESENTATION_ITEM('number of annotations',COUNT_MEASURE(0.));
#20=VALUE_REPRESENTATION_ITEM('number of views',COUNT_MEASURE(0.));
#21=SHAPE_REPRESENTATION_RELATIONSHIP('None',
'relationship between inco1DF473D3cole-None and inco1DF473D3cole-None',
#34,#23);
#22=SHAPE_REPRESENTATION_RELATIONSHIP('None',
'relationship between inco1DF473D3cole-None and inco1DF473D3cole-None',
#34,#12);
#23=ADVANCED_BREP_SHAPE_REPRESENTATION('inco1DF473D3cole-None',(#47,#48),
#305);
#24=SHAPE_DEFINITION_REPRESENTATION(#25,#34);
#25=PRODUCT_DEFINITION_SHAPE('','',#26);
#26=PRODUCT_DEFINITION(' ','',#28,#27);
#27=PRODUCT_DEFINITION_CONTEXT('part definition',#33,'design');
#28=PRODUCT_DEFINITION_FORMATION_WITH_SPECIFIED_SOURCE(' ',' ',#30,
 .NOT_KNOWN.);
#29=PRODUCT_RELATED_PRODUCT_CATEGORY('part','',(#30));
#30=PRODUCT('inco1DF473D3cole','inco1DF473D3cole',' ',(#31));
#31=PRODUCT_CONTEXT(' ',#33,'mechanical');
#32=APPLICATION_PROTOCOL_DEFINITION('international standard',
'automotive_design',2010,#33);
#33=APPLICATION_CONTEXT(
'core data for automotive mechanical design processes');
#34=SHAPE_REPRESENTATION('inco1DF473D3cole-None',(#185),#305);
#35=GEOMETRIC_CURVE_SET('None',(#258,#162));
#36=CONICAL_SURFACE('',#203,3.83263397832529,5.99999999999999);
#37=SURFACE_STYLE_USAGE(.BOTH.,#39);
#38=SURFACE_STYLE_USAGE(.BOTH.,#40);
#39=SURFACE_SIDE_STYLE('',(#41));
#40=SURFACE_SIDE_STYLE('',(#42));
#41=SURFACE_STYLE_FILL_AREA(#43);
#42=SURFACE_STYLE_FILL_AREA(#44);
#43=FILL_AREA_STYLE('',(#45));
#44=FILL_AREA_STYLE('',(#46));
#45=FILL_AREA_STYLE_COLOUR('',#183);
#46=FILL_AREA_STYLE_COLOUR('',#184);
#47=MANIFOLD_SOLID_BREP('CUT',#49);
#48=MANIFOLD_SOLID_BREP('NOCUT',#50);
#49=CLOSED_SHELL('',(#70,#71,#72));
#50=CLOSED_SHELL('',(#73,#74,#75,#76,#77,#78,#79,#80));
#51=SPHERICAL_SURFACE('',#193,6.35);
#52=CYLINDRICAL_SURFACE('',#192,6.35);
#53=CYLINDRICAL_SURFACE('',#197,6.15);
#54=CYLINDRICAL_SURFACE('',#201,4.6);
#55=CYLINDRICAL_SURFACE('',#207,2.75);
#56=FACE_BOUND('',#91,.T.);
#57=FACE_BOUND('',#92,.T.);
#58=FACE_BOUND('',#95,.T.);
#59=FACE_BOUND('',#96,.T.);
#60=FACE_BOUND('',#97,.T.);
#61=FACE_BOUND('',#98,.T.);
#62=FACE_BOUND('',#99,.T.);
#63=FACE_BOUND('',#100,.T.);
#64=FACE_BOUND('',#101,.T.);
#65=FACE_BOUND('',#102,.T.);
#66=FACE_BOUND('',#103,.T.);
#67=FACE_BOUND('',#104,.T.);
#68=FACE_BOUND('',#105,.T.);
#69=FACE_BOUND('',#106,.T.);
#70=ADVANCED_FACE('',(#86),#81,.T.);
#71=ADVANCED_FACE('',(#56,#57),#52,.T.);
#72=ADVANCED_FACE('',(#87),#51,.T.);
#73=ADVANCED_FACE('',(#88),#82,.T.);
#74=ADVANCED_FACE('',(#58,#59),#53,.T.);
#75=ADVANCED_FACE('',(#60,#61),#83,.T.);
#76=ADVANCED_FACE('',(#62,#63),#54,.T.);
#77=ADVANCED_FACE('',(#64,#65),#36,.T.);
#78=ADVANCED_FACE('',(#66,#67),#84,.T.);
#79=ADVANCED_FACE('',(#68,#69),#55,.T.);
#80=ADVANCED_FACE('',(#89),#85,.T.);
#81=PLANE('',#190);
#82=PLANE('',#195);
#83=PLANE('',#199);
#84=PLANE('',#205);
#85=PLANE('',#208);
#86=FACE_OUTER_BOUND('',#90,.T.);
#87=FACE_OUTER_BOUND('',#93,.T.);
#88=FACE_OUTER_BOUND('',#94,.T.);
#89=FACE_OUTER_BOUND('',#107,.T.);
#90=EDGE_LOOP('',(#108));
#91=EDGE_LOOP('',(#109));
#92=EDGE_LOOP('',(#110));
#93=EDGE_LOOP('',(#111));
#94=EDGE_LOOP('',(#112));
#95=EDGE_LOOP('',(#113));
#96=EDGE_LOOP('',(#114));
#97=EDGE_LOOP('',(#115));
#98=EDGE_LOOP('',(#116));
#99=EDGE_LOOP('',(#117));
#100=EDGE_LOOP('',(#118));
#101=EDGE_LOOP('',(#119));
#102=EDGE_LOOP('',(#120));
#103=EDGE_LOOP('',(#121));
#104=EDGE_LOOP('',(#122));
#105=EDGE_LOOP('',(#123));
#106=EDGE_LOOP('',(#124));
#107=EDGE_LOOP('',(#125));
#108=ORIENTED_EDGE('',*,*,#135,.F.);
#109=ORIENTED_EDGE('',*,*,#135,.T.);
#110=ORIENTED_EDGE('',*,*,#136,.F.);
#111=ORIENTED_EDGE('',*,*,#136,.T.);
#112=ORIENTED_EDGE('',*,*,#137,.T.);
#113=ORIENTED_EDGE('',*,*,#137,.F.);
#114=ORIENTED_EDGE('',*,*,#138,.T.);
#115=ORIENTED_EDGE('',*,*,#138,.F.);
#116=ORIENTED_EDGE('',*,*,#139,.T.);
#117=ORIENTED_EDGE('',*,*,#139,.F.);
#118=ORIENTED_EDGE('',*,*,#140,.T.);
#119=ORIENTED_EDGE('',*,*,#141,.T.);
#120=ORIENTED_EDGE('',*,*,#140,.F.);
#121=ORIENTED_EDGE('',*,*,#141,.F.);
#122=ORIENTED_EDGE('',*,*,#142,.T.);
#123=ORIENTED_EDGE('',*,*,#142,.F.);
#124=ORIENTED_EDGE('',*,*,#143,.T.);
#125=ORIENTED_EDGE('',*,*,#143,.F.);
#126=VERTEX_POINT('',#276);
#127=VERTEX_POINT('',#279);
#128=VERTEX_POINT('',#283);
#129=VERTEX_POINT('',#286);
#130=VERTEX_POINT('',#289);
#131=VERTEX_POINT('',#292);
#132=VERTEX_POINT('',#295);
#133=VERTEX_POINT('',#298);
#134=VERTEX_POINT('',#301);
#135=EDGE_CURVE('',#126,#126,#144,.T.);
#136=EDGE_CURVE('',#127,#127,#145,.T.);
#137=EDGE_CURVE('',#128,#128,#146,.T.);
#138=EDGE_CURVE('',#129,#129,#147,.T.);
#139=EDGE_CURVE('',#130,#130,#148,.T.);
#140=EDGE_CURVE('',#131,#131,#149,.T.);
#141=EDGE_CURVE('',#132,#132,#150,.T.);
#142=EDGE_CURVE('',#133,#133,#151,.T.);
#143=EDGE_CURVE('',#134,#134,#152,.T.);
#144=CIRCLE('',#189,6.35);
#145=CIRCLE('',#191,6.35);
#146=CIRCLE('',#194,6.15);
#147=CIRCLE('',#196,6.15);
#148=CIRCLE('',#198,4.6);
#149=CIRCLE('',#200,4.6);
#150=CIRCLE('',#202,3.83273908256056);
#151=CIRCLE('',#204,2.75);
#152=CIRCLE('',#206,2.75);
#153=CURVE_STYLE('',#158,POSITIVE_LENGTH_MEASURE(0.18),#157);
#154=CURVE_STYLE('',#159,POSITIVE_LENGTH_MEASURE(0.18),#182);
#155=CURVE_STYLE('',#160,POSITIVE_LENGTH_MEASURE(0.18),#182);
#156=CURVE_STYLE('',#161,POSITIVE_LENGTH_MEASURE(0.18),#182);
#157=DRAUGHTING_PRE_DEFINED_COLOUR('blue');
#158=DRAUGHTING_PRE_DEFINED_CURVE_FONT('continuous');
#159=DRAUGHTING_PRE_DEFINED_CURVE_FONT('continuous');
#160=DRAUGHTING_PRE_DEFINED_CURVE_FONT('continuous');
#161=DRAUGHTING_PRE_DEFINED_CURVE_FONT('continuous');
#162=TRIMMED_CURVE('CUTTING PART LINE',#163,(PARAMETER_VALUE(0.)),(
PARAMETER_VALUE(1.)),.T.,.PARAMETER.);
#163=(
BOUNDED_CURVE()
B_SPLINE_CURVE(3,(#259,#260,#261,#262,#263,#264,#265,#266,#267,#268,#269,
#270,#271),.UNSPECIFIED.,.T.,.F.)
B_SPLINE_CURVE_WITH_KNOTS((4,3,3,3,4),(0.,0.35023049695099,0.562036559392779,
0.70046099390198,1.),.UNSPECIFIED.)
CURVE()
GEOMETRIC_REPRESENTATION_ITEM()
RATIONAL_B_SPLINE_CURVE((1.,1.,1.,1.,1.,1.,1.,1.,1.,1.,0.804737854124365,
0.804737854124365,1.))
REPRESENTATION_ITEM('CUTTING PART LINE')
);
#164=PRESENTATION_LAYER_ASSIGNMENT('1','Layer 1',(#258,#162,#186,#187,#188,
#47,#48));
#165=STYLED_ITEM('',(#172),#258);
#166=STYLED_ITEM('',(#173),#162);
#167=STYLED_ITEM('',(#174),#186);
#168=STYLED_ITEM('',(#175),#187);
#169=STYLED_ITEM('',(#176),#188);
#170=STYLED_ITEM('',(#177),#47);
#171=STYLED_ITEM('',(#178),#48);
#172=PRESENTATION_STYLE_ASSIGNMENT((#179));
#173=PRESENTATION_STYLE_ASSIGNMENT((#153));
#174=PRESENTATION_STYLE_ASSIGNMENT((#154));
#175=PRESENTATION_STYLE_ASSIGNMENT((#155));
#176=PRESENTATION_STYLE_ASSIGNMENT((#156));
#177=PRESENTATION_STYLE_ASSIGNMENT((#37));
#178=PRESENTATION_STYLE_ASSIGNMENT((#38));
#179=POINT_STYLE('',#180,POSITIVE_LENGTH_MEASURE(3.),#181);
#180=PRE_DEFINED_POINT_MARKER_SYMBOL('plus');
#181=COLOUR_RGB('Medium Royal',0.2,0.4,0.8);
#182=COLOUR_RGB('Strong Stone',0.576470588235294,0.54508278019379,0.392156862745098);
#183=COLOUR_RGB('Light Gray',0.8,0.8,0.8);
#184=COLOUR_RGB('Medium Gray',0.490196078431373,0.490196078431373,0.490196078431373);
#185=AXIS2_PLACEMENT_3D('',#257,#209,#210);
#186=AXIS2_PLACEMENT_3D('MCS',#272,#211,#212);
#187=AXIS2_PLACEMENT_3D('PCS',#273,#213,#214);
#188=AXIS2_PLACEMENT_3D('CIP',#274,#215,#216);
#189=AXIS2_PLACEMENT_3D('',#275,#217,#218);
#190=AXIS2_PLACEMENT_3D('',#277,#219,#220);
#191=AXIS2_PLACEMENT_3D('',#278,#221,#222);
#192=AXIS2_PLACEMENT_3D('',#280,#223,#224);
#193=AXIS2_PLACEMENT_3D('',#281,#225,#226);
#194=AXIS2_PLACEMENT_3D('',#282,#227,#228);
#195=AXIS2_PLACEMENT_3D('',#284,#229,#230);
#196=AXIS2_PLACEMENT_3D('',#285,#231,#232);
#197=AXIS2_PLACEMENT_3D('',#287,#233,#234);
#198=AXIS2_PLACEMENT_3D('',#288,#235,#236);
#199=AXIS2_PLACEMENT_3D('',#290,#237,#238);
#200=AXIS2_PLACEMENT_3D('',#291,#239,#240);
#201=AXIS2_PLACEMENT_3D('',#293,#241,#242);
#202=AXIS2_PLACEMENT_3D('',#294,#243,#244);
#203=AXIS2_PLACEMENT_3D('',#296,#245,#246);
#204=AXIS2_PLACEMENT_3D('',#297,#247,#248);
#205=AXIS2_PLACEMENT_3D('',#299,#249,#250);
#206=AXIS2_PLACEMENT_3D('',#300,#251,#252);
#207=AXIS2_PLACEMENT_3D('',#302,#253,#254);
#208=AXIS2_PLACEMENT_3D('',#303,#255,#256);
#209=DIRECTION('',(0.,0.,1.));
#210=DIRECTION('',(1.,0.,0.));
#211=DIRECTION('',(0.,0.,1.));
#212=DIRECTION('',(1.,0.,0.));
#213=DIRECTION('',(0.,0.,1.));
#214=DIRECTION('',(1.,0.,0.));
#215=DIRECTION('',(0.,0.,1.));
#216=DIRECTION('',(1.,0.,0.));
#217=DIRECTION('',(-5.41363565353984E-32,2.38027457912398E-16,-1.));
#218=DIRECTION('',(-1.,-2.27437443605024E-16,0.));
#219=DIRECTION('',(0.,0.,1.));
#220=DIRECTION('',(-1.,0.,0.));
#221=DIRECTION('',(-1.08272713070797E-31,4.76054915824797E-16,-1.));
#222=DIRECTION('',(-1.,-2.27437443605024E-16,0.));
#223=DIRECTION('',(0.,0.,-1.));
#224=DIRECTION('',(-1.,0.,0.));
#225=DIRECTION('',(2.73184799366426E-16,-3.34417139323795E-16,1.));
#226=DIRECTION('',(0.,-1.,-2.73184799366426E-16));
#227=DIRECTION('',(-2.08562722954075E-31,2.45768188251014E-16,-1.));
#228=DIRECTION('',(-1.,-8.48615617986575E-16,0.));
#229=DIRECTION('',(0.,0.,-1.));
#230=DIRECTION('',(-1.,0.,0.));
#231=DIRECTION('',(0.,0.,-1.));
#232=DIRECTION('',(-1.,-8.48615617986575E-16,0.));
#233=DIRECTION('',(0.,0.,-1.));
#234=DIRECTION('',(-1.,0.,0.));
#235=DIRECTION('',(0.,0.,-1.));
#236=DIRECTION('',(-1.,-3.13962558019979E-16,0.));
#237=DIRECTION('',(0.,0.,1.));
#238=DIRECTION('',(-1.,0.,0.));
#239=DIRECTION('',(1.03162251247571E-31,-3.28581382118203E-16,-1.));
#240=DIRECTION('',(-1.,-3.13962558019979E-16,0.));
#241=DIRECTION('',(0.,0.,-1.));
#242=DIRECTION('',(-1.,0.,0.));
#243=DIRECTION('',(0.,0.,-1.));
#244=DIRECTION('',(-1.,-1.74045672112029E-16,0.));
#245=DIRECTION('',(-5.12160203382346E-32,4.52619134983197E-16,-1.));
#246=DIRECTION('',(0.,1.,-4.93647633978082E-16));
#247=DIRECTION('',(0.,0.,-1.));
#248=DIRECTION('',(-1.,1.40960081359856E-16,0.));
#249=DIRECTION('',(0.,0.,1.));
#250=DIRECTION('',(-1.,0.,0.));
#251=DIRECTION('',(0.,0.,-1.));
#252=DIRECTION('',(-1.,1.40960081359856E-16,0.));
#253=DIRECTION('',(6.30808536718839E-16,0.,-1.));
#254=DIRECTION('',(-1.,0.,-6.30808536718839E-16));
#255=DIRECTION('',(0.,0.,1.));
#256=DIRECTION('',(-1.,0.,0.));
#257=CARTESIAN_POINT('',(0.,0.,0.));
#258=CARTESIAN_POINT('CRP',(-6.35,0.,-14.));
#259=CARTESIAN_POINT('',(0.,0.,-14.));
#260=CARTESIAN_POINT('',(0.,0.,-10.5));
#261=CARTESIAN_POINT('',(0.,0.,-7.));
#262=CARTESIAN_POINT('',(0.,0.,-3.5));
#263=CARTESIAN_POINT('',(-2.11666666666667,0.,-3.5));
#264=CARTESIAN_POINT('',(-4.23333333333333,0.,-3.5));
#265=CARTESIAN_POINT('',(-6.35,0.,-3.5));
#266=CARTESIAN_POINT('',(-6.35,0.,-4.88333333333333));
#267=CARTESIAN_POINT('',(-6.35,0.,-6.26666666666667));
#268=CARTESIAN_POINT('',(-6.35,0.,-7.65));
#269=CARTESIAN_POINT('',(-6.35,0.,-11.3697438789308));
#270=CARTESIAN_POINT('',(-3.71974387893085,0.,-14.));
#271=CARTESIAN_POINT('',(-7.7765071745857E-16,0.,-14.));
#272=CARTESIAN_POINT('',(0.,0.,0.));
#273=CARTESIAN_POINT('',(0.,0.,0.));
#274=CARTESIAN_POINT('',(0.,0.,-14.));
#275=CARTESIAN_POINT('',(6.66133814775094E-16,-1.11022302462516E-16,-3.5));
#276=CARTESIAN_POINT('',(-6.35,-1.55525006935442E-15,-3.5));
#277=CARTESIAN_POINT('',(6.351,6.351,-3.5));
#278=CARTESIAN_POINT('',(6.66133814775094E-16,-1.11022302462516E-16,-7.65));
#279=CARTESIAN_POINT('',(-6.35,-1.55525006935442E-15,-7.65));
#280=CARTESIAN_POINT('',(1.07207588126203E-16,-8.88178419700125E-16,-3.0838));
#281=CARTESIAN_POINT('',(0.,1.73472347597681E-15,-7.65));
#282=CARTESIAN_POINT('',(-1.0547118733939E-15,3.66373598126302E-15,-3.5));
#283=CARTESIAN_POINT('',(-6.15,-1.55525006935442E-15,-3.5));
#284=CARTESIAN_POINT('',(6.151,-6.151,-3.5));
#285=CARTESIAN_POINT('',(-1.0547118733939E-15,3.66373598126302E-15,0.));
#286=CARTESIAN_POINT('',(-6.15,-1.55525006935442E-15,0.));
#287=CARTESIAN_POINT('',(3.49073402618915E-15,-1.75554015768853E-15,0.351199999999999));
#288=CARTESIAN_POINT('',(-9.71445146547012E-17,-1.11022302462516E-16,0.));
#289=CARTESIAN_POINT('',(-4.6,-1.55525006935442E-15,0.));
#290=CARTESIAN_POINT('',(6.151,6.151,0.));
#291=CARTESIAN_POINT('',(-9.71445146547012E-17,-1.11022302462516E-16,2.5));
#292=CARTESIAN_POINT('',(-4.6,-1.55525006935442E-15,2.5));
#293=CARTESIAN_POINT('',(1.64610544161021E-15,-1.75554015768853E-15,2.7512));
#294=CARTESIAN_POINT('',(2.77555756156289E-17,-8.88178419700125E-16,9.8));
#295=CARTESIAN_POINT('',(-3.83273908256056,-1.55525006935442E-15,9.8));
#296=CARTESIAN_POINT('',(-3.44564788702945E-16,-8.82974249272195E-16,9.801));
#297=CARTESIAN_POINT('',(-2.4980018054066E-16,-1.94289029309402E-15,9.8));
#298=CARTESIAN_POINT('',(-2.75,-1.55525006935442E-15,9.8));
#299=CARTESIAN_POINT('',(3.83373908256056,3.83373908256056,9.8));
#300=CARTESIAN_POINT('',(-2.4980018054066E-16,-1.94289029309402E-15,13.8));
#301=CARTESIAN_POINT('',(-2.75,-1.55525006935442E-15,13.8));
#302=CARTESIAN_POINT('',(-4.38426216267239E-16,-1.75554015768853E-15,14.2012));
#303=CARTESIAN_POINT('',(2.751,2.751,13.8));
#304=MECHANICAL_DESIGN_GEOMETRIC_PRESENTATION_REPRESENTATION('',(#165,#166,
#167,#168,#169,#170,#171),#305);
#305=(
GEOMETRIC_REPRESENTATION_CONTEXT(3)
GLOBAL_UNCERTAINTY_ASSIGNED_CONTEXT((#306))
GLOBAL_UNIT_ASSIGNED_CONTEXT((#312,#308,#307))
REPRESENTATION_CONTEXT('XVB510E12','TOP_LEVEL_ASSEMBLY_PART')
);
#306=UNCERTAINTY_MEASURE_WITH_UNIT(LENGTH_MEASURE(2.E-5),#312,
'DISTANCE_ACCURACY_VALUE','Maximum Tolerance applied to model');
#307=(
NAMED_UNIT(*)
SI_UNIT($,.STERADIAN.)
SOLID_ANGLE_UNIT()
);
#308=(
CONVERSION_BASED_UNIT('DEGREE',#310)
NAMED_UNIT(#309)
PLANE_ANGLE_UNIT()
);
#309=DIMENSIONAL_EXPONENTS(0.,0.,0.,0.,0.,0.,0.);
#310=PLANE_ANGLE_MEASURE_WITH_UNIT(PLANE_ANGLE_MEASURE(0.0174532925),#311);
#311=(
NAMED_UNIT(*)
PLANE_ANGLE_UNIT()
SI_UNIT($,.RADIAN.)
);
#312=(
LENGTH_UNIT()
NAMED_UNIT(*)
SI_UNIT(.MILLI.,.METRE.)
);
ENDSEC;
END-ISO-10303-21;
