ISO-10303-21;
HEADER;
/* Generated by software containing ST-Developer
 * from STEP Tools, Inc. (www.steptools.com) 
 */
/* OPTION: using custom schema-name function */

FILE_DESCRIPTION(
/* description */ (''),
/* implementation_level */ '2;1');

FILE_NAME(
/* name */ 'XVB510E10.375D1BZ2_Basic.stp',
/* time_stamp */ '2022-07-20T16:34:34+05:00',
/* author */ (''),
/* organization */ (''),
/* preprocessor_version */ 'ST-DEVELOPER v16.7',
/* originating_system */ 'SIEMENS PLM Software NX 12.0',
/* authorisation */ '');

FILE_SCHEMA (('AUTOMOTIVE_DESIGN { 1 0 10303 214 3 1 1 1 }'));
ENDSEC;

DATA;
#10=CONSTRUCTIVE_GEOMETRY_REPRESENTATION_RELATIONSHIP(
'supplemental geometry','',#34,#11);
#11=CONSTRUCTIVE_GEOMETRY_REPRESENTATION('supplemental geometry',(#197,
#198,#199),#352);
#12=GEOMETRICALLY_BOUNDED_WIREFRAME_SHAPE_REPRESENTATION(
'inco1898A528aume-None',(#35),#352);
#13=PROPERTY_DEFINITION_REPRESENTATION(#17,#15);
#14=PROPERTY_DEFINITION_REPRESENTATION(#18,#16);
#15=REPRESENTATION('',(#19),#352);
#16=REPRESENTATION('',(#20),#352);
#17=PROPERTY_DEFINITION('pmi validation property','',#25);
#18=PROPERTY_DEFINITION('pmi validation property','',#25);
#19=VALUE_REPRESENTATION_ITEM('number of annotations',COUNT_MEASURE(0.));
#20=VALUE_REPRESENTATION_ITEM('number of views',COUNT_MEASURE(0.));
#21=SHAPE_REPRESENTATION_RELATIONSHIP('None',
'relationship between inco1898A528aume-None and inco1898A528aume-None',
#34,#23);
#22=SHAPE_REPRESENTATION_RELATIONSHIP('None',
'relationship between inco1898A528aume-None and inco1898A528aume-None',
#34,#12);
#23=ADVANCED_BREP_SHAPE_REPRESENTATION('inco1898A528aume-None',(#47,#48),
#352);
#24=SHAPE_DEFINITION_REPRESENTATION(#25,#34);
#25=PRODUCT_DEFINITION_SHAPE('','',#26);
#26=PRODUCT_DEFINITION(' ','',#28,#27);
#27=PRODUCT_DEFINITION_CONTEXT('part definition',#33,'design');
#28=PRODUCT_DEFINITION_FORMATION_WITH_SPECIFIED_SOURCE(' ',' ',#30,
 .NOT_KNOWN.);
#29=PRODUCT_RELATED_PRODUCT_CATEGORY('part','',(#30));
#30=PRODUCT('inco1898A528aume','inco1898A528aume',' ',(#31));
#31=PRODUCT_CONTEXT(' ',#33,'mechanical');
#32=APPLICATION_PROTOCOL_DEFINITION('international standard',
'automotive_design',2010,#33);
#33=APPLICATION_CONTEXT(
'core data for automotive mechanical design processes');
#34=SHAPE_REPRESENTATION('inco1898A528aume-None',(#196),#352);
#35=GEOMETRIC_CURVE_SET('None',(#272,#173));
#36=(
BOUNDED_SURFACE()
B_SPLINE_SURFACE(3,3,((#318,#319,#320,#321,#322,#323,#324),(#325,#326,#327,
#328,#329,#330,#331),(#332,#333,#334,#335,#336,#337,#338),(#339,#340,#341,
#342,#343,#344,#345)),.UNSPECIFIED.,.F.,.T.,.F.)
B_SPLINE_SURFACE_WITH_KNOTS((4,4),(1,3,3,3,1),(0.,1.),(-0.5,0.,0.5,1.,1.5),
 .UNSPECIFIED.)
GEOMETRIC_REPRESENTATION_ITEM()
RATIONAL_B_SPLINE_SURFACE(((1.,0.333333333333333,0.333333333333333,1.,0.333333333333333,
0.333333333333333,1.),(0.805921164646645,0.268640388215548,0.268640388215548,
0.805921164646645,0.268640388215548,0.268640388215548,0.805921164646645),
(0.805921164646645,0.268640388215548,0.268640388215548,0.805921164646645,
0.268640388215548,0.268640388215548,0.805921164646645),(1.,0.333333333333333,
0.333333333333333,1.,0.333333333333333,0.333333333333333,1.)))
REPRESENTATION_ITEM('')
SURFACE()
);
#37=SURFACE_STYLE_USAGE(.BOTH.,#39);
#38=SURFACE_STYLE_USAGE(.BOTH.,#40);
#39=SURFACE_SIDE_STYLE('',(#41));
#40=SURFACE_SIDE_STYLE('',(#42));
#41=SURFACE_STYLE_FILL_AREA(#43);
#42=SURFACE_STYLE_FILL_AREA(#44);
#43=FILL_AREA_STYLE('',(#45));
#44=FILL_AREA_STYLE('',(#46));
#45=FILL_AREA_STYLE_COLOUR('',#194);
#46=FILL_AREA_STYLE_COLOUR('',#195);
#47=MANIFOLD_SOLID_BREP('NOCUT',#49);
#48=MANIFOLD_SOLID_BREP('CUT',#50);
#49=CLOSED_SHELL('',(#72,#73,#74,#75,#76,#77,#78,#79));
#50=CLOSED_SHELL('',(#80,#81,#82,#83));
#51=CONICAL_SURFACE('',#209,3.01131117827696,5.99999999999996);
#52=CYLINDRICAL_SURFACE('',#205,2.2);
#53=CYLINDRICAL_SURFACE('',#211,3.6);
#54=CYLINDRICAL_SURFACE('',#214,4.625);
#55=CYLINDRICAL_SURFACE('',#218,4.76299987462944);
#56=FACE_BOUND('',#96,.T.);
#57=FACE_BOUND('',#97,.T.);
#58=FACE_BOUND('',#98,.T.);
#59=FACE_BOUND('',#99,.T.);
#60=FACE_BOUND('',#100,.T.);
#61=FACE_BOUND('',#101,.T.);
#62=FACE_BOUND('',#102,.T.);
#63=FACE_BOUND('',#103,.T.);
#64=FACE_BOUND('',#104,.T.);
#65=FACE_BOUND('',#105,.T.);
#66=FACE_BOUND('',#106,.T.);
#67=FACE_BOUND('',#107,.T.);
#68=FACE_BOUND('',#108,.T.);
#69=FACE_BOUND('',#109,.T.);
#70=FACE_BOUND('',#110,.T.);
#71=FACE_BOUND('',#111,.T.);
#72=ADVANCED_FACE('',(#90),#84,.T.);
#73=ADVANCED_FACE('',(#91),#85,.T.);
#74=ADVANCED_FACE('',(#56,#57),#52,.T.);
#75=ADVANCED_FACE('',(#58,#59),#86,.T.);
#76=ADVANCED_FACE('',(#60,#61),#51,.T.);
#77=ADVANCED_FACE('',(#62,#63),#53,.T.);
#78=ADVANCED_FACE('',(#64,#65),#87,.T.);
#79=ADVANCED_FACE('',(#66,#67),#54,.T.);
#80=ADVANCED_FACE('',(#68,#69),#36,.T.);
#81=ADVANCED_FACE('',(#70,#71),#55,.T.);
#82=ADVANCED_FACE('',(#92),#88,.T.);
#83=ADVANCED_FACE('',(#93),#89,.F.);
#84=PLANE('',#201);
#85=PLANE('',#203);
#86=PLANE('',#207);
#87=PLANE('',#213);
#88=PLANE('',#219);
#89=PLANE('',#220);
#90=FACE_OUTER_BOUND('',#94,.T.);
#91=FACE_OUTER_BOUND('',#95,.T.);
#92=FACE_OUTER_BOUND('',#112,.T.);
#93=FACE_OUTER_BOUND('',#113,.T.);
#94=EDGE_LOOP('',(#114));
#95=EDGE_LOOP('',(#115));
#96=EDGE_LOOP('',(#116));
#97=EDGE_LOOP('',(#117));
#98=EDGE_LOOP('',(#118));
#99=EDGE_LOOP('',(#119));
#100=EDGE_LOOP('',(#120));
#101=EDGE_LOOP('',(#121));
#102=EDGE_LOOP('',(#122));
#103=EDGE_LOOP('',(#123));
#104=EDGE_LOOP('',(#124));
#105=EDGE_LOOP('',(#125));
#106=EDGE_LOOP('',(#126));
#107=EDGE_LOOP('',(#127));
#108=EDGE_LOOP('',(#128));
#109=EDGE_LOOP('',(#129));
#110=EDGE_LOOP('',(#130));
#111=EDGE_LOOP('',(#131));
#112=EDGE_LOOP('',(#132));
#113=EDGE_LOOP('',(#133));
#114=ORIENTED_EDGE('',*,*,#144,.T.);
#115=ORIENTED_EDGE('',*,*,#145,.F.);
#116=ORIENTED_EDGE('',*,*,#146,.F.);
#117=ORIENTED_EDGE('',*,*,#145,.T.);
#118=ORIENTED_EDGE('',*,*,#146,.T.);
#119=ORIENTED_EDGE('',*,*,#147,.F.);
#120=ORIENTED_EDGE('',*,*,#148,.F.);
#121=ORIENTED_EDGE('',*,*,#147,.T.);
#122=ORIENTED_EDGE('',*,*,#149,.F.);
#123=ORIENTED_EDGE('',*,*,#148,.T.);
#124=ORIENTED_EDGE('',*,*,#150,.F.);
#125=ORIENTED_EDGE('',*,*,#149,.T.);
#126=ORIENTED_EDGE('',*,*,#144,.F.);
#127=ORIENTED_EDGE('',*,*,#150,.T.);
#128=ORIENTED_EDGE('',*,*,#151,.F.);
#129=ORIENTED_EDGE('',*,*,#152,.T.);
#130=ORIENTED_EDGE('',*,*,#151,.T.);
#131=ORIENTED_EDGE('',*,*,#153,.F.);
#132=ORIENTED_EDGE('',*,*,#153,.T.);
#133=ORIENTED_EDGE('',*,*,#152,.F.);
#134=VERTEX_POINT('',#293);
#135=VERTEX_POINT('',#296);
#136=VERTEX_POINT('',#299);
#137=VERTEX_POINT('',#302);
#138=VERTEX_POINT('',#305);
#139=VERTEX_POINT('',#308);
#140=VERTEX_POINT('',#311);
#141=VERTEX_POINT('',#315);
#142=VERTEX_POINT('',#317);
#143=VERTEX_POINT('',#347);
#144=EDGE_CURVE('',#134,#134,#154,.T.);
#145=EDGE_CURVE('',#135,#135,#155,.T.);
#146=EDGE_CURVE('',#136,#136,#156,.T.);
#147=EDGE_CURVE('',#137,#137,#157,.T.);
#148=EDGE_CURVE('',#138,#138,#158,.T.);
#149=EDGE_CURVE('',#139,#139,#159,.T.);
#150=EDGE_CURVE('',#140,#140,#160,.T.);
#151=EDGE_CURVE('',#141,#141,#161,.T.);
#152=EDGE_CURVE('',#142,#142,#162,.T.);
#153=EDGE_CURVE('',#143,#143,#163,.T.);
#154=CIRCLE('',#200,4.625);
#155=CIRCLE('',#202,2.2);
#156=CIRCLE('',#204,2.2);
#157=CIRCLE('',#206,3.01141628251222);
#158=CIRCLE('',#208,3.6);
#159=CIRCLE('',#210,3.6);
#160=CIRCLE('',#212,4.625);
#161=CIRCLE('',#215,4.76299974925887);
#162=CIRCLE('',#216,0.0119996970817091);
#163=CIRCLE('',#217,4.763);
#164=CURVE_STYLE('',#169,POSITIVE_LENGTH_MEASURE(0.18),#168);
#165=CURVE_STYLE('',#170,POSITIVE_LENGTH_MEASURE(0.18),#193);
#166=CURVE_STYLE('',#171,POSITIVE_LENGTH_MEASURE(0.18),#193);
#167=CURVE_STYLE('',#172,POSITIVE_LENGTH_MEASURE(0.18),#193);
#168=DRAUGHTING_PRE_DEFINED_COLOUR('blue');
#169=DRAUGHTING_PRE_DEFINED_CURVE_FONT('continuous');
#170=DRAUGHTING_PRE_DEFINED_CURVE_FONT('continuous');
#171=DRAUGHTING_PRE_DEFINED_CURVE_FONT('continuous');
#172=DRAUGHTING_PRE_DEFINED_CURVE_FONT('continuous');
#173=TRIMMED_CURVE('CUTTING PART LINE',#174,(PARAMETER_VALUE(0.)),(
PARAMETER_VALUE(1.)),.T.,.PARAMETER.);
#174=(
BOUNDED_CURVE()
B_SPLINE_CURVE(3,(#273,#274,#275,#276,#277,#278,#279,#280,#281,#282,#283,
#284,#285,#286,#287,#288),.UNSPECIFIED.,.T.,.F.)
B_SPLINE_CURVE_WITH_KNOTS((4,3,3,3,3,4),(0.,0.377613643677401,0.378180054111713,
0.696127373513279,0.818810050080588,1.),.UNSPECIFIED.)
CURVE()
GEOMETRIC_REPRESENTATION_ITEM()
RATIONAL_B_SPLINE_CURVE((1.,1.,1.,1.,1.,1.,1.,0.805921164646639,0.805921164646639,
1.,1.,1.,1.,1.,1.,1.))
REPRESENTATION_ITEM('CUTTING PART LINE')
);
#175=PRESENTATION_LAYER_ASSIGNMENT('1','Layer 1',(#272,#173,#197,#198,#199,
#47,#48));
#176=STYLED_ITEM('',(#183),#272);
#177=STYLED_ITEM('',(#184),#173);
#178=STYLED_ITEM('',(#185),#197);
#179=STYLED_ITEM('',(#186),#198);
#180=STYLED_ITEM('',(#187),#199);
#181=STYLED_ITEM('',(#188),#47);
#182=STYLED_ITEM('',(#189),#48);
#183=PRESENTATION_STYLE_ASSIGNMENT((#190));
#184=PRESENTATION_STYLE_ASSIGNMENT((#164));
#185=PRESENTATION_STYLE_ASSIGNMENT((#165));
#186=PRESENTATION_STYLE_ASSIGNMENT((#166));
#187=PRESENTATION_STYLE_ASSIGNMENT((#167));
#188=PRESENTATION_STYLE_ASSIGNMENT((#37));
#189=PRESENTATION_STYLE_ASSIGNMENT((#38));
#190=POINT_STYLE('',#191,POSITIVE_LENGTH_MEASURE(3.),#192);
#191=PRE_DEFINED_POINT_MARKER_SYMBOL('plus');
#192=COLOUR_RGB('Medium Royal',0.2,0.4,0.8);
#193=COLOUR_RGB('Strong Stone',0.576470588235294,0.54508278019379,0.392156862745098);
#194=COLOUR_RGB('Medium Gray',0.490196078431373,0.490196078431373,0.490196078431373);
#195=COLOUR_RGB('Light Gray',0.8,0.8,0.8);
#196=AXIS2_PLACEMENT_3D('',#271,#221,#222);
#197=AXIS2_PLACEMENT_3D('MCS',#289,#223,#224);
#198=AXIS2_PLACEMENT_3D('PCS',#290,#225,#226);
#199=AXIS2_PLACEMENT_3D('CIP',#291,#227,#228);
#200=AXIS2_PLACEMENT_3D('',#292,#229,#230);
#201=AXIS2_PLACEMENT_3D('',#294,#231,#232);
#202=AXIS2_PLACEMENT_3D('',#295,#233,#234);
#203=AXIS2_PLACEMENT_3D('',#297,#235,#236);
#204=AXIS2_PLACEMENT_3D('',#298,#237,#238);
#205=AXIS2_PLACEMENT_3D('',#300,#239,#240);
#206=AXIS2_PLACEMENT_3D('',#301,#241,#242);
#207=AXIS2_PLACEMENT_3D('',#303,#243,#244);
#208=AXIS2_PLACEMENT_3D('',#304,#245,#246);
#209=AXIS2_PLACEMENT_3D('',#306,#247,#248);
#210=AXIS2_PLACEMENT_3D('',#307,#249,#250);
#211=AXIS2_PLACEMENT_3D('',#309,#251,#252);
#212=AXIS2_PLACEMENT_3D('',#310,#253,#254);
#213=AXIS2_PLACEMENT_3D('',#312,#255,#256);
#214=AXIS2_PLACEMENT_3D('',#313,#257,#258);
#215=AXIS2_PLACEMENT_3D('',#314,#259,#260);
#216=AXIS2_PLACEMENT_3D('',#316,#261,#262);
#217=AXIS2_PLACEMENT_3D('',#346,#263,#264);
#218=AXIS2_PLACEMENT_3D('',#348,#265,#266);
#219=AXIS2_PLACEMENT_3D('',#349,#267,#268);
#220=AXIS2_PLACEMENT_3D('',#350,#269,#270);
#221=DIRECTION('',(0.,0.,1.));
#222=DIRECTION('',(1.,0.,0.));
#223=DIRECTION('',(0.,0.,1.));
#224=DIRECTION('',(1.,0.,0.));
#225=DIRECTION('',(0.,0.,1.));
#226=DIRECTION('',(1.,0.,0.));
#227=DIRECTION('',(0.,0.,1.));
#228=DIRECTION('',(1.,0.,0.));
#229=DIRECTION('',(0.,0.,-1.));
#230=DIRECTION('',(-1.,4.08081976618977E-16,0.));
#231=DIRECTION('',(0.,0.,-1.));
#232=DIRECTION('',(-1.,0.,0.));
#233=DIRECTION('',(0.,0.,-1.));
#234=DIRECTION('',(-1.,2.01858731750028E-16,0.));
#235=DIRECTION('',(0.,0.,1.));
#236=DIRECTION('',(-1.,0.,0.));
#237=DIRECTION('',(-2.42696599828166E-31,-1.37406759794884E-15,-1.));
#238=DIRECTION('',(-1.,1.76626390281275E-16,0.));
#239=DIRECTION('',(7.88510670898549E-16,0.,-1.));
#240=DIRECTION('',(-1.,0.,-7.88510670898549E-16));
#241=DIRECTION('',(-2.94937111437539E-16,9.59523792436364E-16,-1.));
#242=DIRECTION('',(-1.,2.21202833578154E-16,2.88024522888221E-16));
#243=DIRECTION('',(0.,0.,1.));
#244=DIRECTION('',(-1.,0.,0.));
#245=DIRECTION('',(0.,0.,-1.));
#246=DIRECTION('',(-1.,0.,0.));
#247=DIRECTION('',(0.,0.,-1.));
#248=DIRECTION('',(-1.,0.,-3.85082116243349E-16));
#249=DIRECTION('',(0.,0.,-1.));
#250=DIRECTION('',(-1.,0.,0.));
#251=DIRECTION('',(0.,0.,-1.));
#252=DIRECTION('',(-1.,0.,0.));
#253=DIRECTION('',(0.,0.,-1.));
#254=DIRECTION('',(-1.,4.08081976618977E-16,0.));
#255=DIRECTION('',(0.,0.,1.));
#256=DIRECTION('',(-1.,0.,0.));
#257=DIRECTION('',(0.,0.,-1.));
#258=DIRECTION('',(-1.,0.,0.));
#259=DIRECTION('',(0.,0.,1.));
#260=DIRECTION('',(1.,0.,0.));
#261=DIRECTION('',(0.,0.,1.));
#262=DIRECTION('',(1.,0.,0.));
#263=DIRECTION('',(0.,0.,1.));
#264=DIRECTION('',(1.,0.,0.));
#265=DIRECTION('',(0.,0.,1.));
#266=DIRECTION('',(1.,0.,0.));
#267=DIRECTION('',(0.,0.,1.));
#268=DIRECTION('',(1.,0.,0.));
#269=DIRECTION('',(0.,0.,1.));
#270=DIRECTION('',(1.,0.,0.));
#271=CARTESIAN_POINT('',(0.,0.,0.));
#272=CARTESIAN_POINT('CRP',(-4.763,0.,-11.8));
#273=CARTESIAN_POINT('',(0.,0.,-3.8));
#274=CARTESIAN_POINT('',(0.,0.,-6.46664657729291));
#275=CARTESIAN_POINT('',(0.,0.,-9.13329315458583));
#276=CARTESIAN_POINT('',(0.,0.,-11.7999397318787));
#277=CARTESIAN_POINT('',(-0.00399989902719827,0.,-11.7999397318787));
#278=CARTESIAN_POINT('',(-0.00799979805439654,0.,-11.7999397318787));
#279=CARTESIAN_POINT('',(-0.0119996970815948,0.,-11.7999397318787));
#280=CARTESIAN_POINT('',(-2.7979950626877,0.,-11.7999397318787));
#281=CARTESIAN_POINT('',(-4.76299907276927,0.,-9.81099536560597));
#282=CARTESIAN_POINT('',(-4.76299974925887,0.,-7.02499999999994));
#283=CARTESIAN_POINT('',(-4.76300001028814,0.,-5.94999999999999));
#284=CARTESIAN_POINT('',(-4.76299987462944,0.,-4.87499999999998));
#285=CARTESIAN_POINT('',(-4.76299987462944,0.,-3.8));
#286=CARTESIAN_POINT('',(-3.17533333333333,0.,-3.8));
#287=CARTESIAN_POINT('',(-1.58766666666667,0.,-3.8));
#288=CARTESIAN_POINT('',(0.,0.,-3.8));
#289=CARTESIAN_POINT('',(0.,0.,0.));
#290=CARTESIAN_POINT('',(0.,0.,0.));
#291=CARTESIAN_POINT('',(0.,0.,-11.8));
#292=CARTESIAN_POINT('',(-1.20736753927986E-15,-1.88737914186277E-15,-3.8));
#293=CARTESIAN_POINT('',(-4.625,-1.54074395550979E-30,-3.8));
#294=CARTESIAN_POINT('',(4.626,-4.626,-3.8));
#295=CARTESIAN_POINT('',(0.,-4.44089209850063E-16,11.2));
#296=CARTESIAN_POINT('',(-2.2,-1.34815096107107E-30,11.2));
#297=CARTESIAN_POINT('',(2.201,2.201,11.2));
#298=CARTESIAN_POINT('',(-4.57966997657877E-16,-3.88578058618805E-16,7.7));
#299=CARTESIAN_POINT('',(-2.2,0.,7.7));
#300=CARTESIAN_POINT('',(9.24308971085647E-16,0.,11.5512));
#301=CARTESIAN_POINT('',(1.94289029309402E-16,-6.66133814775094E-16,7.7));
#302=CARTESIAN_POINT('',(-3.01141628251222,-1.92592994438724E-31,7.7));
#303=CARTESIAN_POINT('',(3.01241628251222,3.01241628251222,7.7));
#304=CARTESIAN_POINT('',(-4.85722573273506E-16,0.,2.1));
#305=CARTESIAN_POINT('',(-3.6,0.,2.1));
#306=CARTESIAN_POINT('',(-1.00021610918162E-14,0.,7.701));
#307=CARTESIAN_POINT('',(-4.85722573273506E-16,0.,0.));
#308=CARTESIAN_POINT('',(-3.6,0.,0.));
#309=CARTESIAN_POINT('',(-5.31629474188157E-16,0.,2.3112));
#310=CARTESIAN_POINT('',(-1.20736753927986E-15,-1.88737914186277E-15,4.89858719658946E-17));
#311=CARTESIAN_POINT('',(-4.625,-1.54074395550979E-30,4.89858719658946E-17));
#312=CARTESIAN_POINT('',(4.626,4.626,2.44929359829473E-17));
#313=CARTESIAN_POINT('',(-1.98406015140042E-16,0.,0.3812));
#314=CARTESIAN_POINT('',(0.,0.,-7.02499999999994));
#315=CARTESIAN_POINT('',(4.76299974925887,0.,-7.02499999999994));
#316=CARTESIAN_POINT('',(0.,0.,-11.7999397318787));
#317=CARTESIAN_POINT('',(0.0119996970817091,0.,-11.7999397318787));
#318=CARTESIAN_POINT('',(4.76299974925887,0.,-7.02499999999994));
#319=CARTESIAN_POINT('',(4.76299974925887,9.52599949851774,-7.02499999999994));
#320=CARTESIAN_POINT('',(-4.76299974925887,9.52599949851774,-7.02499999999994));
#321=CARTESIAN_POINT('',(-4.76299974925887,0.,-7.02499999999994));
#322=CARTESIAN_POINT('',(-4.76299974925887,-9.52599949851774,-7.02499999999994));
#323=CARTESIAN_POINT('',(4.76299974925887,-9.52599949851774,-7.02499999999994));
#324=CARTESIAN_POINT('',(4.76299974925887,0.,-7.02499999999994));
#325=CARTESIAN_POINT('',(4.76299907276927,0.,-9.81099536560591));
#326=CARTESIAN_POINT('',(4.76299907276927,9.52599814553855,-9.81099536560591));
#327=CARTESIAN_POINT('',(-4.76299907276927,9.52599814553855,-9.81099536560591));
#328=CARTESIAN_POINT('',(-4.76299907276927,0.,-9.81099536560591));
#329=CARTESIAN_POINT('',(-4.76299907276927,-9.52599814553855,-9.81099536560591));
#330=CARTESIAN_POINT('',(4.76299907276927,-9.52599814553855,-9.81099536560591));
#331=CARTESIAN_POINT('',(4.76299907276927,0.,-9.81099536560591));
#332=CARTESIAN_POINT('',(2.79795986852724,0.,-11.7859361502803));
#333=CARTESIAN_POINT('',(2.79795986852724,5.59591973705449,-11.7859361502803));
#334=CARTESIAN_POINT('',(-2.79795986852724,5.59591973705449,-11.7859361502803));
#335=CARTESIAN_POINT('',(-2.79795986852724,0.,-11.7859361502803));
#336=CARTESIAN_POINT('',(-2.79795986852724,-5.59591973705449,-11.7859361502803));
#337=CARTESIAN_POINT('',(2.79795986852724,-5.59591973705449,-11.7859361502803));
#338=CARTESIAN_POINT('',(2.79795986852724,0.,-11.7859361502803));
#339=CARTESIAN_POINT('',(0.0119996970817087,0.,-11.7999397318787));
#340=CARTESIAN_POINT('',(0.0119996970817087,0.0239993941634175,-11.7999397318787));
#341=CARTESIAN_POINT('',(-0.0119996970817087,0.0239993941634175,-11.7999397318787));
#342=CARTESIAN_POINT('',(-0.0119996970817087,0.,-11.7999397318787));
#343=CARTESIAN_POINT('',(-0.0119996970817087,-0.0239993941634175,-11.7999397318787));
#344=CARTESIAN_POINT('',(0.0119996970817087,-0.0239993941634175,-11.7999397318787));
#345=CARTESIAN_POINT('',(0.0119996970817087,0.,-11.7999397318787));
#346=CARTESIAN_POINT('',(0.,0.,-3.8));
#347=CARTESIAN_POINT('',(4.763,0.,-3.8));
#348=CARTESIAN_POINT('',(0.,0.,0.));
#349=CARTESIAN_POINT('',(0.,0.,-3.8));
#350=CARTESIAN_POINT('',(0.,0.,-11.7999397318787));
#351=MECHANICAL_DESIGN_GEOMETRIC_PRESENTATION_REPRESENTATION('',(#176,#177,
#178,#179,#180,#181,#182),#352);
#352=(
GEOMETRIC_REPRESENTATION_CONTEXT(3)
GLOBAL_UNCERTAINTY_ASSIGNED_CONTEXT((#353))
GLOBAL_UNIT_ASSIGNED_CONTEXT((#359,#355,#354))
REPRESENTATION_CONTEXT('XVB510E10','TOP_LEVEL_ASSEMBLY_PART')
);
#353=UNCERTAINTY_MEASURE_WITH_UNIT(LENGTH_MEASURE(0.0254),#359,
'DISTANCE_ACCURACY_VALUE','Maximum Tolerance applied to model');
#354=(
NAMED_UNIT(*)
SI_UNIT($,.STERADIAN.)
SOLID_ANGLE_UNIT()
);
#355=(
CONVERSION_BASED_UNIT('DEGREE',#357)
NAMED_UNIT(#356)
PLANE_ANGLE_UNIT()
);
#356=DIMENSIONAL_EXPONENTS(0.,0.,0.,0.,0.,0.,0.);
#357=PLANE_ANGLE_MEASURE_WITH_UNIT(PLANE_ANGLE_MEASURE(0.0174532925),#358);
#358=(
NAMED_UNIT(*)
PLANE_ANGLE_UNIT()
SI_UNIT($,.RADIAN.)
);
#359=(
LENGTH_UNIT()
NAMED_UNIT(*)
SI_UNIT(.MILLI.,.METRE.)
);
ENDSEC;
END-ISO-10303-21;
