ISO-10303-21;
HEADER;
/* Generated by software containing ST-Developer
 * from STEP Tools, Inc. (www.steptools.com) 
 */
/* OPTION: using custom schema-name function */

FILE_DESCRIPTION(
/* description */ (''),
/* implementation_level */ '2;1');

FILE_NAME(
/* name */ 'XVB510E16160D1BZ2_Basic.stp',
/* time_stamp */ '2022-07-28T13:23:59+06:00',
/* author */ (''),
/* organization */ (''),
/* preprocessor_version */ 'ST-DEVELOPER v16.7',
/* originating_system */ 'SIEMENS PLM Software NX 12.0',
/* authorisation */ '');

FILE_SCHEMA (('AUTOMOTIVE_DESIGN { 1 0 10303 214 3 1 1 1 }'));
ENDSEC;

DATA;
#10=CONSTRUCTIVE_GEOMETRY_REPRESENTATION_RELATIONSHIP(
'supplemental geometry','',#34,#11);
#11=CONSTRUCTIVE_GEOMETRY_REPRESENTATION('supplemental geometry',(#206,
#207,#208),#361);
#12=GEOMETRICALLY_BOUNDED_WIREFRAME_SHAPE_REPRESENTATION(
'inpu1E0082A0pnlv-None',(#35),#361);
#13=PROPERTY_DEFINITION_REPRESENTATION(#17,#15);
#14=PROPERTY_DEFINITION_REPRESENTATION(#18,#16);
#15=REPRESENTATION('',(#19),#361);
#16=REPRESENTATION('',(#20),#361);
#17=PROPERTY_DEFINITION('pmi validation property','',#25);
#18=PROPERTY_DEFINITION('pmi validation property','',#25);
#19=VALUE_REPRESENTATION_ITEM('number of annotations',COUNT_MEASURE(0.));
#20=VALUE_REPRESENTATION_ITEM('number of views',COUNT_MEASURE(0.));
#21=SHAPE_REPRESENTATION_RELATIONSHIP('None',
'relationship between inpu1E0082A0pnlv-None and inpu1E0082A0pnlv-None',
#34,#23);
#22=SHAPE_REPRESENTATION_RELATIONSHIP('None',
'relationship between inpu1E0082A0pnlv-None and inpu1E0082A0pnlv-None',
#34,#12);
#23=ADVANCED_BREP_SHAPE_REPRESENTATION('inpu1E0082A0pnlv-None',(#48,#49),
#361);
#24=SHAPE_DEFINITION_REPRESENTATION(#25,#34);
#25=PRODUCT_DEFINITION_SHAPE('','',#26);
#26=PRODUCT_DEFINITION(' ','',#28,#27);
#27=PRODUCT_DEFINITION_CONTEXT('part definition',#33,'design');
#28=PRODUCT_DEFINITION_FORMATION_WITH_SPECIFIED_SOURCE(' ',' ',#30,
 .NOT_KNOWN.);
#29=PRODUCT_RELATED_PRODUCT_CATEGORY('part','',(#30));
#30=PRODUCT('inpu1E0082A0pnlv','inpu1E0082A0pnlv',' ',(#31));
#31=PRODUCT_CONTEXT(' ',#33,'mechanical');
#32=APPLICATION_PROTOCOL_DEFINITION('international standard',
'automotive_design',2010,#33);
#33=APPLICATION_CONTEXT(
'core data for automotive mechanical design processes');
#34=SHAPE_REPRESENTATION('inpu1E0082A0pnlv-None',(#205),#361);
#35=GEOMETRIC_CURVE_SET('None',(#272,#273,#274,#275,#168));
#36=(
BOUNDED_SURFACE()
B_SPLINE_SURFACE(3,3,((#328,#329,#330,#331,#332,#333,#334),(#335,#336,#337,
#338,#339,#340,#341),(#342,#343,#344,#345,#346,#347,#348),(#349,#350,#351,
#352,#353,#354,#355)),.UNSPECIFIED.,.F.,.T.,.F.)
B_SPLINE_SURFACE_WITH_KNOTS((4,4),(1,3,3,3,1),(0.,1.),(-0.5,0.,0.5,1.,1.5),
 .UNSPECIFIED.)
GEOMETRIC_REPRESENTATION_ITEM()
RATIONAL_B_SPLINE_SURFACE(((1.,0.333333333333333,0.333333333333333,1.,0.333333333333333,
0.333333333333333,1.),(0.804736379749619,0.26824545991654,0.26824545991654,
0.804736379749619,0.26824545991654,0.26824545991654,0.804736379749619),
(0.804736379749619,0.26824545991654,0.26824545991654,0.804736379749619,
0.26824545991654,0.26824545991654,0.804736379749619),(1.,0.333333333333333,
0.333333333333333,1.,0.333333333333333,0.333333333333333,1.)))
REPRESENTATION_ITEM('')
SURFACE()
);
#37=VERTEX_LOOP('',#139);
#38=SURFACE_STYLE_USAGE(.BOTH.,#40);
#39=SURFACE_STYLE_USAGE(.BOTH.,#41);
#40=SURFACE_SIDE_STYLE('',(#42));
#41=SURFACE_SIDE_STYLE('',(#43));
#42=SURFACE_STYLE_FILL_AREA(#44);
#43=SURFACE_STYLE_FILL_AREA(#45);
#44=FILL_AREA_STYLE('',(#46));
#45=FILL_AREA_STYLE('',(#47));
#46=FILL_AREA_STYLE_COLOUR('',#203);
#47=FILL_AREA_STYLE_COLOUR('',#204);
#48=MANIFOLD_SOLID_BREP('NOCUT',#50);
#49=MANIFOLD_SOLID_BREP('CUT',#51);
#50=CLOSED_SHELL('',(#73,#74,#75,#76,#77,#78,#79,#80));
#51=CLOSED_SHELL('',(#81,#82,#83));
#52=CONICAL_SURFACE('',#218,4.58035261884211,6.00000000000004);
#53=CYLINDRICAL_SURFACE('',#214,3.50002506208055);
#54=CYLINDRICAL_SURFACE('',#220,5.65252092278728);
#55=CYLINDRICAL_SURFACE('',#223,7.75002506208054);
#56=CYLINDRICAL_SURFACE('',#225,8.00002506208054);
#57=FACE_BOUND('',#94,.T.);
#58=FACE_BOUND('',#95,.T.);
#59=FACE_BOUND('',#96,.T.);
#60=FACE_BOUND('',#97,.T.);
#61=FACE_BOUND('',#98,.T.);
#62=FACE_BOUND('',#99,.T.);
#63=FACE_BOUND('',#100,.T.);
#64=FACE_BOUND('',#101,.T.);
#65=FACE_BOUND('',#102,.T.);
#66=FACE_BOUND('',#103,.T.);
#67=FACE_BOUND('',#104,.T.);
#68=FACE_BOUND('',#105,.T.);
#69=FACE_BOUND('',#106,.T.);
#70=FACE_BOUND('',#37,.T.);
#71=FACE_BOUND('',#107,.T.);
#72=FACE_BOUND('',#108,.T.);
#73=ADVANCED_FACE('',(#89),#84,.T.);
#74=ADVANCED_FACE('',(#90),#85,.T.);
#75=ADVANCED_FACE('',(#57,#58),#53,.T.);
#76=ADVANCED_FACE('',(#59,#60),#86,.T.);
#77=ADVANCED_FACE('',(#61,#62),#52,.T.);
#78=ADVANCED_FACE('',(#63,#64),#54,.T.);
#79=ADVANCED_FACE('',(#65,#66),#87,.T.);
#80=ADVANCED_FACE('',(#67,#68),#55,.T.);
#81=ADVANCED_FACE('',(#69,#70),#36,.T.);
#82=ADVANCED_FACE('',(#71,#72),#56,.T.);
#83=ADVANCED_FACE('',(#91),#88,.T.);
#84=PLANE('',#210);
#85=PLANE('',#212);
#86=PLANE('',#216);
#87=PLANE('',#222);
#88=PLANE('',#226);
#89=FACE_OUTER_BOUND('',#92,.T.);
#90=FACE_OUTER_BOUND('',#93,.T.);
#91=FACE_OUTER_BOUND('',#109,.T.);
#92=EDGE_LOOP('',(#110));
#93=EDGE_LOOP('',(#111));
#94=EDGE_LOOP('',(#112));
#95=EDGE_LOOP('',(#113));
#96=EDGE_LOOP('',(#114));
#97=EDGE_LOOP('',(#115));
#98=EDGE_LOOP('',(#116));
#99=EDGE_LOOP('',(#117));
#100=EDGE_LOOP('',(#118));
#101=EDGE_LOOP('',(#119));
#102=EDGE_LOOP('',(#120));
#103=EDGE_LOOP('',(#121));
#104=EDGE_LOOP('',(#122));
#105=EDGE_LOOP('',(#123));
#106=EDGE_LOOP('',(#124,#125));
#107=EDGE_LOOP('',(#126,#127));
#108=EDGE_LOOP('',(#128));
#109=EDGE_LOOP('',(#129));
#110=ORIENTED_EDGE('',*,*,#141,.T.);
#111=ORIENTED_EDGE('',*,*,#142,.F.);
#112=ORIENTED_EDGE('',*,*,#143,.F.);
#113=ORIENTED_EDGE('',*,*,#142,.T.);
#114=ORIENTED_EDGE('',*,*,#144,.F.);
#115=ORIENTED_EDGE('',*,*,#143,.T.);
#116=ORIENTED_EDGE('',*,*,#145,.F.);
#117=ORIENTED_EDGE('',*,*,#144,.T.);
#118=ORIENTED_EDGE('',*,*,#146,.F.);
#119=ORIENTED_EDGE('',*,*,#145,.T.);
#120=ORIENTED_EDGE('',*,*,#146,.T.);
#121=ORIENTED_EDGE('',*,*,#147,.F.);
#122=ORIENTED_EDGE('',*,*,#147,.T.);
#123=ORIENTED_EDGE('',*,*,#141,.F.);
#124=ORIENTED_EDGE('',*,*,#148,.T.);
#125=ORIENTED_EDGE('',*,*,#149,.T.);
#126=ORIENTED_EDGE('',*,*,#149,.F.);
#127=ORIENTED_EDGE('',*,*,#148,.F.);
#128=ORIENTED_EDGE('',*,*,#150,.T.);
#129=ORIENTED_EDGE('',*,*,#150,.F.);
#130=VERTEX_POINT('',#293);
#131=VERTEX_POINT('',#296);
#132=VERTEX_POINT('',#299);
#133=VERTEX_POINT('',#302);
#134=VERTEX_POINT('',#305);
#135=VERTEX_POINT('',#308);
#136=VERTEX_POINT('',#311);
#137=VERTEX_POINT('',#321);
#138=VERTEX_POINT('',#322);
#139=VERTEX_POINT('',#327);
#140=VERTEX_POINT('',#357);
#141=EDGE_CURVE('',#130,#130,#151,.T.);
#142=EDGE_CURVE('',#131,#131,#152,.T.);
#143=EDGE_CURVE('',#132,#132,#153,.T.);
#144=EDGE_CURVE('',#133,#133,#154,.T.);
#145=EDGE_CURVE('',#134,#134,#155,.T.);
#146=EDGE_CURVE('',#135,#135,#156,.T.);
#147=EDGE_CURVE('',#136,#136,#157,.T.);
#148=EDGE_CURVE('',#137,#138,#170,.T.);
#149=EDGE_CURVE('',#138,#137,#171,.T.);
#150=EDGE_CURVE('',#140,#140,#158,.T.);
#151=CIRCLE('',#209,7.75002506208054);
#152=CIRCLE('',#211,3.50002506208055);
#153=CIRCLE('',#213,3.50002506208055);
#154=CIRCLE('',#215,4.58045772307738);
#155=CIRCLE('',#217,5.65252092278728);
#156=CIRCLE('',#219,5.65252092278728);
#157=CIRCLE('',#221,7.75002506208054);
#158=CIRCLE('',#224,8.00002506208055);
#159=CURVE_STYLE('',#164,POSITIVE_LENGTH_MEASURE(0.18),#163);
#160=CURVE_STYLE('',#165,POSITIVE_LENGTH_MEASURE(0.18),#202);
#161=CURVE_STYLE('',#166,POSITIVE_LENGTH_MEASURE(0.18),#202);
#162=CURVE_STYLE('',#167,POSITIVE_LENGTH_MEASURE(0.18),#202);
#163=DRAUGHTING_PRE_DEFINED_COLOUR('blue');
#164=DRAUGHTING_PRE_DEFINED_CURVE_FONT('continuous');
#165=DRAUGHTING_PRE_DEFINED_CURVE_FONT('continuous');
#166=DRAUGHTING_PRE_DEFINED_CURVE_FONT('continuous');
#167=DRAUGHTING_PRE_DEFINED_CURVE_FONT('continuous');
#168=TRIMMED_CURVE('CUTTING PART LINE',#169,(PARAMETER_VALUE(0.)),(
PARAMETER_VALUE(1.)),.T.,.PARAMETER.);
#169=(
BOUNDED_CURVE()
B_SPLINE_CURVE(3,(#276,#277,#278,#279,#280,#281,#282,#283,#284,#285,#286,
#287,#288),.UNSPECIFIED.,.T.,.F.)
B_SPLINE_CURVE_WITH_KNOTS((1,3,3,3,3,3,1),(-0.306616288072558,0.,0.220878416100835,
0.38101482881408,0.693383711927442,1.,1.22087841610084),.UNSPECIFIED.)
CURVE()
GEOMETRIC_REPRESENTATION_ITEM()
RATIONAL_B_SPLINE_CURVE((1.,1.,1.,1.,1.,1.,1.,0.80473711814998,0.80473711814998,
1.,1.,1.,1.))
REPRESENTATION_ITEM('CUTTING PART LINE')
);
#170=(
BOUNDED_CURVE()
B_SPLINE_CURVE(3,(#314,#315,#316,#317,#318,#319,#320),.UNSPECIFIED.,.F.,
 .F.)
B_SPLINE_CURVE_WITH_KNOTS((4,3,4),(0.,0.666666666666667,1.),
 .UNSPECIFIED.)
CURVE()
GEOMETRIC_REPRESENTATION_ITEM()
RATIONAL_B_SPLINE_CURVE((0.999999999999995,0.333333333333331,0.333333333333331,
0.999999999999995,0.666666666666663,0.499999999999997,0.499999999999997))
REPRESENTATION_ITEM('')
);
#171=(
BOUNDED_CURVE()
B_SPLINE_CURVE(3,(#323,#324,#325,#326),.UNSPECIFIED.,.F.,.F.)
B_SPLINE_CURVE_WITH_KNOTS((4,4),(0.,1.),.UNSPECIFIED.)
CURVE()
GEOMETRIC_REPRESENTATION_ITEM()
RATIONAL_B_SPLINE_CURVE((0.499999999999998,0.499999999999998,0.666666666666664,
0.999999999999997))
REPRESENTATION_ITEM('')
);
#172=PRESENTATION_LAYER_ASSIGNMENT('1','Layer 1',(#272,#273,#274,#275,#168,
#206,#207,#208,#48,#49));
#173=STYLED_ITEM('',(#183),#272);
#174=STYLED_ITEM('',(#184),#273);
#175=STYLED_ITEM('',(#185),#274);
#176=STYLED_ITEM('',(#186),#275);
#177=STYLED_ITEM('',(#187),#168);
#178=STYLED_ITEM('',(#188),#206);
#179=STYLED_ITEM('',(#189),#207);
#180=STYLED_ITEM('',(#190),#208);
#181=STYLED_ITEM('',(#191),#48);
#182=STYLED_ITEM('',(#192),#49);
#183=PRESENTATION_STYLE_ASSIGNMENT((#193));
#184=PRESENTATION_STYLE_ASSIGNMENT((#194));
#185=PRESENTATION_STYLE_ASSIGNMENT((#195));
#186=PRESENTATION_STYLE_ASSIGNMENT((#196));
#187=PRESENTATION_STYLE_ASSIGNMENT((#159));
#188=PRESENTATION_STYLE_ASSIGNMENT((#160));
#189=PRESENTATION_STYLE_ASSIGNMENT((#161));
#190=PRESENTATION_STYLE_ASSIGNMENT((#162));
#191=PRESENTATION_STYLE_ASSIGNMENT((#38));
#192=PRESENTATION_STYLE_ASSIGNMENT((#39));
#193=POINT_STYLE('',#197,POSITIVE_LENGTH_MEASURE(3.),#201);
#194=POINT_STYLE('',#198,POSITIVE_LENGTH_MEASURE(3.),#202);
#195=POINT_STYLE('',#199,POSITIVE_LENGTH_MEASURE(3.),#202);
#196=POINT_STYLE('',#200,POSITIVE_LENGTH_MEASURE(3.),#202);
#197=PRE_DEFINED_POINT_MARKER_SYMBOL('plus');
#198=PRE_DEFINED_POINT_MARKER_SYMBOL('plus');
#199=PRE_DEFINED_POINT_MARKER_SYMBOL('plus');
#200=PRE_DEFINED_POINT_MARKER_SYMBOL('plus');
#201=COLOUR_RGB('Medium Royal',0.2,0.4,0.8);
#202=COLOUR_RGB('Strong Stone',0.576470588235294,0.54508278019379,0.392156862745098);
#203=COLOUR_RGB('Medium Gray',0.490196078431373,0.490196078431373,0.490196078431373);
#204=COLOUR_RGB('Light Gray',0.8,0.8,0.8);
#205=AXIS2_PLACEMENT_3D('',#271,#227,#228);
#206=AXIS2_PLACEMENT_3D('MCS',#289,#229,#230);
#207=AXIS2_PLACEMENT_3D('PCS',#290,#231,#232);
#208=AXIS2_PLACEMENT_3D('CIP',#291,#233,#234);
#209=AXIS2_PLACEMENT_3D('',#292,#235,#236);
#210=AXIS2_PLACEMENT_3D('',#294,#237,#238);
#211=AXIS2_PLACEMENT_3D('',#295,#239,#240);
#212=AXIS2_PLACEMENT_3D('',#297,#241,#242);
#213=AXIS2_PLACEMENT_3D('',#298,#243,#244);
#214=AXIS2_PLACEMENT_3D('',#300,#245,#246);
#215=AXIS2_PLACEMENT_3D('',#301,#247,#248);
#216=AXIS2_PLACEMENT_3D('',#303,#249,#250);
#217=AXIS2_PLACEMENT_3D('',#304,#251,#252);
#218=AXIS2_PLACEMENT_3D('',#306,#253,#254);
#219=AXIS2_PLACEMENT_3D('',#307,#255,#256);
#220=AXIS2_PLACEMENT_3D('',#309,#257,#258);
#221=AXIS2_PLACEMENT_3D('',#310,#259,#260);
#222=AXIS2_PLACEMENT_3D('',#312,#261,#262);
#223=AXIS2_PLACEMENT_3D('',#313,#263,#264);
#224=AXIS2_PLACEMENT_3D('',#356,#265,#266);
#225=AXIS2_PLACEMENT_3D('',#358,#267,#268);
#226=AXIS2_PLACEMENT_3D('',#359,#269,#270);
#227=DIRECTION('',(0.,0.,1.));
#228=DIRECTION('',(1.,0.,0.));
#229=DIRECTION('',(0.,0.,1.));
#230=DIRECTION('',(1.,0.,0.));
#231=DIRECTION('',(0.,0.,1.));
#232=DIRECTION('',(1.,0.,0.));
#233=DIRECTION('',(0.,0.,1.));
#234=DIRECTION('',(1.,0.,0.));
#235=DIRECTION('',(0.,0.,-1.));
#236=DIRECTION('',(-1.,-5.7292798809597E-17,0.));
#237=DIRECTION('',(0.,0.,-1.));
#238=DIRECTION('',(1.,0.,0.));
#239=DIRECTION('',(0.,0.,-1.));
#240=DIRECTION('',(-1.,-9.51421054564534E-17,0.));
#241=DIRECTION('',(0.,0.,1.));
#242=DIRECTION('',(-1.,0.,0.));
#243=DIRECTION('',(0.,0.,-1.));
#244=DIRECTION('',(-1.,-9.51421054564534E-17,0.));
#245=DIRECTION('',(0.,0.,-1.));
#246=DIRECTION('',(1.,0.,0.));
#247=DIRECTION('',(0.,0.,-1.));
#248=DIRECTION('',(-1.,-6.30180016160806E-16,0.));
#249=DIRECTION('',(0.,0.,1.));
#250=DIRECTION('',(-1.,0.,0.));
#251=DIRECTION('',(0.,0.,-1.));
#252=DIRECTION('',(-1.,-1.1783515543963E-16,0.));
#253=DIRECTION('',(3.78731425358106E-16,0.,-1.));
#254=DIRECTION('',(1.,0.,-4.42835755361451E-16));
#255=DIRECTION('',(-5.59711123896923E-47,4.74994758910548E-31,-1.));
#256=DIRECTION('',(-1.,-1.1783515543963E-16,0.));
#257=DIRECTION('',(0.,0.,-1.));
#258=DIRECTION('',(1.,0.,0.));
#259=DIRECTION('',(0.,0.,-1.));
#260=DIRECTION('',(-1.,-5.7292798809597E-17,0.));
#261=DIRECTION('',(0.,0.,1.));
#262=DIRECTION('',(-1.,0.,0.));
#263=DIRECTION('',(0.,0.,-1.));
#264=DIRECTION('',(1.,0.,0.));
#265=DIRECTION('',(0.,0.,-1.));
#266=DIRECTION('',(-1.,-1.11013494280568E-16,0.));
#267=DIRECTION('',(0.,0.,-1.));
#268=DIRECTION('',(1.,0.,0.));
#269=DIRECTION('',(0.,0.,1.));
#270=DIRECTION('',(-1.,0.,0.));
#271=CARTESIAN_POINT('',(0.,0.,0.));
#272=CARTESIAN_POINT('CRP',(-8.,0.,-18.3));
#273=CARTESIAN_POINT('',(0.,0.,0.));
#274=CARTESIAN_POINT('',(0.,0.,0.));
#275=CARTESIAN_POINT('',(0.,0.,-18.1));
#276=CARTESIAN_POINT('',(0.,0.,-4.3));
#277=CARTESIAN_POINT('',(-2.66667397643219,0.,-4.3));
#278=CARTESIAN_POINT('',(-5.33334795286437,0.,-4.3));
#279=CARTESIAN_POINT('',(-8.00002192929656,0.,-4.3));
#280=CARTESIAN_POINT('',(-8.00002192929656,-3.13275332016514E-6,-6.23333333333333));
#281=CARTESIAN_POINT('',(-8.00002192929656,-3.13275332016514E-6,-8.16666666666667));
#282=CARTESIAN_POINT('',(-8.00002192929656,-3.13275332016514E-6,-10.1));
#283=CARTESIAN_POINT('',(-8.00002192929656,-3.13275332016514E-6,-14.7863031032841));
#284=CARTESIAN_POINT('',(-4.68632816534179,0.,-18.1000146328132));
#285=CARTESIAN_POINT('',(-2.50620805494952E-5,0.,-18.099999999961));
#286=CARTESIAN_POINT('',(0.,0.,-13.4999999999386));
#287=CARTESIAN_POINT('',(0.,0.,-8.8999999999693));
#288=CARTESIAN_POINT('',(0.,0.,-4.3));
#289=CARTESIAN_POINT('',(0.,0.,0.));
#290=CARTESIAN_POINT('',(0.,0.,0.));
#291=CARTESIAN_POINT('',(0.,0.,-18.1));
#292=CARTESIAN_POINT('',(-1.83186799063151E-15,-2.50620805433144E-5,-5.1));
#293=CARTESIAN_POINT('',(-7.75002506208054,-2.50620805437584E-5,-5.1));
#294=CARTESIAN_POINT('',(7.75102506208054,-7.75105012416109,-5.1));
#295=CARTESIAN_POINT('',(-5.82867087928207E-16,-2.50620805434254E-5,16.8));
#296=CARTESIAN_POINT('',(-3.50002506208055,-2.50620805437584E-5,16.8));
#297=CARTESIAN_POINT('',(-3.50102506208055,-3.50105012416109,16.8));
#298=CARTESIAN_POINT('',(-5.82867087928207E-16,-2.50620805434254E-5,12.8));
#299=CARTESIAN_POINT('',(-3.50002506208055,-2.50620805437584E-5,12.8));
#300=CARTESIAN_POINT('',(-5.02640433435135E-16,-2.50620805440482E-5,17.2012));
#301=CARTESIAN_POINT('',(-4.16333634234434E-16,-2.50620805408719E-5,12.8));
#302=CARTESIAN_POINT('',(-4.58045772307738,-2.50620805437584E-5,12.8));
#303=CARTESIAN_POINT('',(-4.58145772307738,-4.58148278515792,12.8));
#304=CARTESIAN_POINT('',(-3.19189119579733E-16,-2.50620805430923E-5,2.6));
#305=CARTESIAN_POINT('',(-5.65252092278728,-2.50620805437584E-5,2.6));
#306=CARTESIAN_POINT('',(-1.05266352138669E-15,-2.50620805452538E-5,12.801));
#307=CARTESIAN_POINT('',(-3.19189119579733E-16,-2.50620805430923E-5,-6.93889390390723E-15));
#308=CARTESIAN_POINT('',(-5.65252092278728,-2.50620805437584E-5,-6.93889390390723E-15));
#309=CARTESIAN_POINT('',(-3.58349101383263E-15,-2.5062080544376E-5,2.8812));
#310=CARTESIAN_POINT('',(-1.83186799063151E-15,-2.50620805433144E-5,-1.04083408558608E-14));
#311=CARTESIAN_POINT('',(-7.75002506208054,-2.50620805437584E-5,-1.04083408558608E-14));
#312=CARTESIAN_POINT('',(-7.75102506208054,-7.75105012416109,-7.77915058758349E-15));
#313=CARTESIAN_POINT('',(-1.56257093896811E-15,-2.50620805443656E-5,0.21119999999999));
#314=CARTESIAN_POINT('',(-8.00005004186001,0.,-10.1000000000001));
#315=CARTESIAN_POINT('',(-8.00005004186001,16.00010008372,-10.1000000000001));
#316=CARTESIAN_POINT('',(8.00005004186001,16.00010008372,-10.1000000000001));
#317=CARTESIAN_POINT('',(8.00005004186001,0.,-10.1000000000001));
#318=CARTESIAN_POINT('',(8.00005004186001,-4.00002502093,-10.1000000000001));
#319=CARTESIAN_POINT('',(5.33336669457334,-8.00005004185999,-10.1000000000001));
#320=CARTESIAN_POINT('',(0.,-8.00005004185999,-10.1000000000001));
#321=CARTESIAN_POINT('',(-8.00003755195064,2.44249065417517E-15,-10.1));
#322=CARTESIAN_POINT('',(-1.17616369825622E-14,-8.00005008301055,-10.1));
#323=CARTESIAN_POINT('',(0.,-8.00005004186,-10.1000000000001));
#324=CARTESIAN_POINT('',(-5.33336669457334,-8.00005004186,-10.1000000000001));
#325=CARTESIAN_POINT('',(-8.00005004186001,-4.00002502093,-10.1000000000001));
#326=CARTESIAN_POINT('',(-8.00005004186001,0.,-10.1000000000001));
#327=CARTESIAN_POINT('',(1.40316610750606E-5,0.,-18.0999999998757));
#328=CARTESIAN_POINT('',(1.38221218613121E-15,0.,-18.0999999998435));
#329=CARTESIAN_POINT('',(1.38221218613121E-15,0.,-18.0999999998435));
#330=CARTESIAN_POINT('',(1.38221218613121E-15,0.,-18.0999999998435));
#331=CARTESIAN_POINT('',(1.38221218613121E-15,0.,-18.0999999998435));
#332=CARTESIAN_POINT('',(1.38221218613121E-15,0.,-18.0999999998435));
#333=CARTESIAN_POINT('',(1.38221218613121E-15,0.,-18.0999999998435));
#334=CARTESIAN_POINT('',(1.38221218613121E-15,0.,-18.0999999998435));
#335=CARTESIAN_POINT('',(-4.68631474370391,0.,-18.1000293138318));
#336=CARTESIAN_POINT('',(-4.68631474370391,9.37262948740781,-18.1000293138318));
#337=CARTESIAN_POINT('',(4.68631474370391,9.37262948740781,-18.1000293138318));
#338=CARTESIAN_POINT('',(4.68631474370391,0.,-18.1000293138318));
#339=CARTESIAN_POINT('',(4.68631474370391,-9.37262948740781,-18.1000293138318));
#340=CARTESIAN_POINT('',(-4.68631474370391,-9.37262948740781,-18.1000293138318));
#341=CARTESIAN_POINT('',(-4.68631474370391,0.,-18.1000293138318));
#342=CARTESIAN_POINT('',(-8.00005004186001,0.,-14.7863147437956));
#343=CARTESIAN_POINT('',(-8.00005004186001,16.00010008372,-14.7863147437956));
#344=CARTESIAN_POINT('',(8.00005004186001,16.00010008372,-14.7863147437956));
#345=CARTESIAN_POINT('',(8.00005004186001,0.,-14.7863147437956));
#346=CARTESIAN_POINT('',(8.00005004186001,-16.00010008372,-14.7863147437956));
#347=CARTESIAN_POINT('',(-8.00005004186001,-16.00010008372,-14.7863147437956));
#348=CARTESIAN_POINT('',(-8.00005004186001,0.,-14.7863147437956));
#349=CARTESIAN_POINT('',(-8.00005004186001,0.,-10.1));
#350=CARTESIAN_POINT('',(-8.00005004186001,16.00010008372,-10.1));
#351=CARTESIAN_POINT('',(8.00005004186001,16.00010008372,-10.1));
#352=CARTESIAN_POINT('',(8.00005004186001,0.,-10.1));
#353=CARTESIAN_POINT('',(8.00005004186001,-16.00010008372,-10.1));
#354=CARTESIAN_POINT('',(-8.00005004186001,-16.00010008372,-10.1));
#355=CARTESIAN_POINT('',(-8.00005004186001,0.,-10.1));
#356=CARTESIAN_POINT('',(-1.0547118733939E-15,-2.50620805428703E-5,-5.1));
#357=CARTESIAN_POINT('',(-8.00002506208055,-2.50620805437584E-5,-5.1));
#358=CARTESIAN_POINT('',(-8.84218579275755E-15,-2.50620805448201E-5,-3.69635427196112));
#359=CARTESIAN_POINT('',(-8.00102506208055,-8.00105012416109,-5.1));
#360=MECHANICAL_DESIGN_GEOMETRIC_PRESENTATION_REPRESENTATION('',(#173,#174,
#175,#176,#177,#178,#179,#180,#181,#182),#361);
#361=(
GEOMETRIC_REPRESENTATION_CONTEXT(3)
GLOBAL_UNCERTAINTY_ASSIGNED_CONTEXT((#362))
GLOBAL_UNIT_ASSIGNED_CONTEXT((#368,#364,#363))
REPRESENTATION_CONTEXT('XVB510E16160D1BZ2_Basic',
'TOP_LEVEL_ASSEMBLY_PART')
);
#362=UNCERTAINTY_MEASURE_WITH_UNIT(LENGTH_MEASURE(0.0508),#368,
'DISTANCE_ACCURACY_VALUE','Maximum Tolerance applied to model');
#363=(
NAMED_UNIT(*)
SI_UNIT($,.STERADIAN.)
SOLID_ANGLE_UNIT()
);
#364=(
CONVERSION_BASED_UNIT('DEGREE',#366)
NAMED_UNIT(#365)
PLANE_ANGLE_UNIT()
);
#365=DIMENSIONAL_EXPONENTS(0.,0.,0.,0.,0.,0.,0.);
#366=PLANE_ANGLE_MEASURE_WITH_UNIT(PLANE_ANGLE_MEASURE(0.0174532925),#367);
#367=(
NAMED_UNIT(*)
PLANE_ANGLE_UNIT()
SI_UNIT($,.RADIAN.)
);
#368=(
LENGTH_UNIT()
NAMED_UNIT(*)
SI_UNIT(.MILLI.,.METRE.)
);
ENDSEC;
END-ISO-10303-21;
