ISO-10303-21;
HEADER;
/* Generated by software containing ST-Developer
 * from STEP Tools, Inc. (www.steptools.com) 
 */
/* OPTION: using custom schema-name function */

FILE_DESCRIPTION(
/* description */ (''),
/* implementation_level */ '2;1');

FILE_NAME(
/* name */ 'XVE510E10100D1R050Z2_Basic.stp',
/* time_stamp */ '2022-07-20T15:13:20+06:00',
/* author */ (''),
/* organization */ (''),
/* preprocessor_version */ 'ST-DEVELOPER v16.7',
/* originating_system */ 'SIEMENS PLM Software NX 12.0',
/* authorisation */ '');

FILE_SCHEMA (('AUTOMOTIVE_DESIGN { 1 0 10303 214 3 1 1 1 }'));
ENDSEC;

DATA;
#10=CONSTRUCTIVE_GEOMETRY_REPRESENTATION_RELATIONSHIP(
'supplemental geometry','',#34,#11);
#11=CONSTRUCTIVE_GEOMETRY_REPRESENTATION('supplemental geometry',(#197,
#198,#199),#328);
#12=GEOMETRICALLY_BOUNDED_WIREFRAME_SHAPE_REPRESENTATION(
'inco1898A528auh0-None',(#35),#328);
#13=PROPERTY_DEFINITION_REPRESENTATION(#17,#15);
#14=PROPERTY_DEFINITION_REPRESENTATION(#18,#16);
#15=REPRESENTATION('',(#19),#328);
#16=REPRESENTATION('',(#20),#328);
#17=PROPERTY_DEFINITION('pmi validation property','',#25);
#18=PROPERTY_DEFINITION('pmi validation property','',#25);
#19=VALUE_REPRESENTATION_ITEM('number of annotations',COUNT_MEASURE(0.));
#20=VALUE_REPRESENTATION_ITEM('number of views',COUNT_MEASURE(0.));
#21=SHAPE_REPRESENTATION_RELATIONSHIP('None',
'relationship between inco1898A528auh0-None and inco1898A528auh0-None',
#34,#23);
#22=SHAPE_REPRESENTATION_RELATIONSHIP('None',
'relationship between inco1898A528auh0-None and inco1898A528auh0-None',
#34,#12);
#23=ADVANCED_BREP_SHAPE_REPRESENTATION('inco1898A528auh0-None',(#47,#48),
#328);
#24=SHAPE_DEFINITION_REPRESENTATION(#25,#34);
#25=PRODUCT_DEFINITION_SHAPE('','',#26);
#26=PRODUCT_DEFINITION(' ','',#28,#27);
#27=PRODUCT_DEFINITION_CONTEXT('part definition',#33,'design');
#28=PRODUCT_DEFINITION_FORMATION_WITH_SPECIFIED_SOURCE(' ',' ',#30,
 .NOT_KNOWN.);
#29=PRODUCT_RELATED_PRODUCT_CATEGORY('part','',(#30));
#30=PRODUCT('inco1898A528auh0','inco1898A528auh0',' ',(#31));
#31=PRODUCT_CONTEXT(' ',#33,'mechanical');
#32=APPLICATION_PROTOCOL_DEFINITION('international standard',
'automotive_design',2010,#33);
#33=APPLICATION_CONTEXT(
'core data for automotive mechanical design processes');
#34=SHAPE_REPRESENTATION('inco1898A528auh0-None',(#196),#328);
#35=GEOMETRIC_CURVE_SET('None',(#275,#173));
#36=CONICAL_SURFACE('',#214,3.01131117827695,5.99999999999996);
#37=SURFACE_STYLE_USAGE(.BOTH.,#39);
#38=SURFACE_STYLE_USAGE(.BOTH.,#40);
#39=SURFACE_SIDE_STYLE('',(#41));
#40=SURFACE_SIDE_STYLE('',(#42));
#41=SURFACE_STYLE_FILL_AREA(#43);
#42=SURFACE_STYLE_FILL_AREA(#44);
#43=FILL_AREA_STYLE('',(#45));
#44=FILL_AREA_STYLE('',(#46));
#45=FILL_AREA_STYLE_COLOUR('',#194);
#46=FILL_AREA_STYLE_COLOUR('',#195);
#47=MANIFOLD_SOLID_BREP('CUT',#49);
#48=MANIFOLD_SOLID_BREP('NOCUT',#50);
#49=CLOSED_SHELL('',(#62,#63,#64,#65));
#50=CLOSED_SHELL('',(#66,#67,#68,#69,#70,#71,#72,#73));
#51=TOROIDAL_SURFACE('',#205,4.50000000000044,0.499999999999999);
#52=PLANE('',#204);
#53=PLANE('',#206);
#54=PLANE('',#208);
#55=PLANE('',#212);
#56=PLANE('',#218);
#57=PLANE('',#221);
#58=FACE_OUTER_BOUND('',#96,.T.);
#59=FACE_OUTER_BOUND('',#99,.T.);
#60=FACE_OUTER_BOUND('',#100,.T.);
#61=FACE_OUTER_BOUND('',#113,.T.);
#62=ADVANCED_FACE('',(#78,#79),#74,.T.);
#63=ADVANCED_FACE('',(#58),#52,.T.);
#64=ADVANCED_FACE('',(#80,#81),#51,.T.);
#65=ADVANCED_FACE('',(#59),#53,.T.);
#66=ADVANCED_FACE('',(#60),#54,.T.);
#67=ADVANCED_FACE('',(#82,#83),#75,.T.);
#68=ADVANCED_FACE('',(#84,#85),#55,.T.);
#69=ADVANCED_FACE('',(#86,#87),#36,.T.);
#70=ADVANCED_FACE('',(#88,#89),#76,.T.);
#71=ADVANCED_FACE('',(#90,#91),#56,.T.);
#72=ADVANCED_FACE('',(#92,#93),#77,.T.);
#73=ADVANCED_FACE('',(#61),#57,.T.);
#74=CYLINDRICAL_SURFACE('',#202,5.00000000000014);
#75=CYLINDRICAL_SURFACE('',#210,2.2);
#76=CYLINDRICAL_SURFACE('',#216,3.6);
#77=CYLINDRICAL_SURFACE('',#220,4.85);
#78=FACE_BOUND('',#94,.T.);
#79=FACE_BOUND('',#95,.T.);
#80=FACE_BOUND('',#97,.T.);
#81=FACE_BOUND('',#98,.T.);
#82=FACE_BOUND('',#101,.T.);
#83=FACE_BOUND('',#102,.T.);
#84=FACE_BOUND('',#103,.T.);
#85=FACE_BOUND('',#104,.T.);
#86=FACE_BOUND('',#105,.T.);
#87=FACE_BOUND('',#106,.T.);
#88=FACE_BOUND('',#107,.T.);
#89=FACE_BOUND('',#108,.T.);
#90=FACE_BOUND('',#109,.T.);
#91=FACE_BOUND('',#110,.T.);
#92=FACE_BOUND('',#111,.T.);
#93=FACE_BOUND('',#112,.T.);
#94=EDGE_LOOP('',(#114));
#95=EDGE_LOOP('',(#115));
#96=EDGE_LOOP('',(#116));
#97=EDGE_LOOP('',(#117));
#98=EDGE_LOOP('',(#118));
#99=EDGE_LOOP('',(#119));
#100=EDGE_LOOP('',(#120));
#101=EDGE_LOOP('',(#121));
#102=EDGE_LOOP('',(#122));
#103=EDGE_LOOP('',(#123));
#104=EDGE_LOOP('',(#124));
#105=EDGE_LOOP('',(#125));
#106=EDGE_LOOP('',(#126));
#107=EDGE_LOOP('',(#127));
#108=EDGE_LOOP('',(#128));
#109=EDGE_LOOP('',(#129));
#110=EDGE_LOOP('',(#130));
#111=EDGE_LOOP('',(#131));
#112=EDGE_LOOP('',(#132));
#113=EDGE_LOOP('',(#133));
#114=ORIENTED_EDGE('',*,*,#144,.F.);
#115=ORIENTED_EDGE('',*,*,#145,.T.);
#116=ORIENTED_EDGE('',*,*,#146,.T.);
#117=ORIENTED_EDGE('',*,*,#146,.F.);
#118=ORIENTED_EDGE('',*,*,#144,.T.);
#119=ORIENTED_EDGE('',*,*,#145,.F.);
#120=ORIENTED_EDGE('',*,*,#147,.F.);
#121=ORIENTED_EDGE('',*,*,#148,.F.);
#122=ORIENTED_EDGE('',*,*,#147,.T.);
#123=ORIENTED_EDGE('',*,*,#148,.T.);
#124=ORIENTED_EDGE('',*,*,#149,.F.);
#125=ORIENTED_EDGE('',*,*,#150,.F.);
#126=ORIENTED_EDGE('',*,*,#149,.T.);
#127=ORIENTED_EDGE('',*,*,#151,.F.);
#128=ORIENTED_EDGE('',*,*,#150,.T.);
#129=ORIENTED_EDGE('',*,*,#152,.F.);
#130=ORIENTED_EDGE('',*,*,#151,.T.);
#131=ORIENTED_EDGE('',*,*,#153,.F.);
#132=ORIENTED_EDGE('',*,*,#152,.T.);
#133=ORIENTED_EDGE('',*,*,#153,.T.);
#134=VERTEX_POINT('',#296);
#135=VERTEX_POINT('',#298);
#136=VERTEX_POINT('',#301);
#137=VERTEX_POINT('',#306);
#138=VERTEX_POINT('',#309);
#139=VERTEX_POINT('',#312);
#140=VERTEX_POINT('',#315);
#141=VERTEX_POINT('',#318);
#142=VERTEX_POINT('',#321);
#143=VERTEX_POINT('',#324);
#144=EDGE_CURVE('',#134,#134,#154,.T.);
#145=EDGE_CURVE('',#135,#135,#155,.T.);
#146=EDGE_CURVE('',#136,#136,#156,.T.);
#147=EDGE_CURVE('',#137,#137,#157,.T.);
#148=EDGE_CURVE('',#138,#138,#158,.T.);
#149=EDGE_CURVE('',#139,#139,#159,.T.);
#150=EDGE_CURVE('',#140,#140,#160,.T.);
#151=EDGE_CURVE('',#141,#141,#161,.T.);
#152=EDGE_CURVE('',#142,#142,#162,.T.);
#153=EDGE_CURVE('',#143,#143,#163,.T.);
#154=CIRCLE('',#200,5.00000000000044);
#155=CIRCLE('',#201,4.99999999999984);
#156=CIRCLE('',#203,4.50000000000044);
#157=CIRCLE('',#207,2.2);
#158=CIRCLE('',#209,2.2);
#159=CIRCLE('',#211,3.01141628251222);
#160=CIRCLE('',#213,3.6);
#161=CIRCLE('',#215,3.6);
#162=CIRCLE('',#217,4.85);
#163=CIRCLE('',#219,4.85);
#164=CURVE_STYLE('',#169,POSITIVE_LENGTH_MEASURE(0.18),#168);
#165=CURVE_STYLE('',#170,POSITIVE_LENGTH_MEASURE(0.18),#193);
#166=CURVE_STYLE('',#171,POSITIVE_LENGTH_MEASURE(0.18),#193);
#167=CURVE_STYLE('',#172,POSITIVE_LENGTH_MEASURE(0.18),#193);
#168=DRAUGHTING_PRE_DEFINED_COLOUR('blue');
#169=DRAUGHTING_PRE_DEFINED_CURVE_FONT('continuous');
#170=DRAUGHTING_PRE_DEFINED_CURVE_FONT('continuous');
#171=DRAUGHTING_PRE_DEFINED_CURVE_FONT('continuous');
#172=DRAUGHTING_PRE_DEFINED_CURVE_FONT('continuous');
#173=TRIMMED_CURVE('CUTTING PART LINE',#174,(PARAMETER_VALUE(0.)),(
PARAMETER_VALUE(1.)),.T.,.PARAMETER.);
#174=(
BOUNDED_CURVE()
B_SPLINE_CURVE(3,(#276,#277,#278,#279,#280,#281,#282,#283,#284,#285,#286,
#287,#288,#289,#290,#291),.UNSPECIFIED.,.T.,.F.)
B_SPLINE_CURVE_WITH_KNOTS((1,3,3,3,3,3,3,1),(-0.173888310733998,0.,0.0339538046966058,
0.323767668199429,0.516976902348292,0.826111689266002,1.,1.03395380469661),
 .UNSPECIFIED.)
CURVE()
GEOMETRIC_REPRESENTATION_ITEM()
RATIONAL_B_SPLINE_CURVE((0.585786437626903,0.471404520791032,0.471404520791032,
0.585786437626903,0.585786437626903,0.585786437626903,0.585786437626903,
0.585786437626903,0.585786437626903,0.585786437626903,0.585786437626903,
0.585786437626903,0.585786437626903,0.585786437626903,0.585786437626903,
0.585786437626903))
REPRESENTATION_ITEM('CUTTING PART LINE')
);
#175=PRESENTATION_LAYER_ASSIGNMENT('1','Layer 1',(#275,#173,#197,#198,#199,
#47,#48));
#176=STYLED_ITEM('',(#183),#275);
#177=STYLED_ITEM('',(#184),#173);
#178=STYLED_ITEM('',(#185),#197);
#179=STYLED_ITEM('',(#186),#198);
#180=STYLED_ITEM('',(#187),#199);
#181=STYLED_ITEM('',(#188),#47);
#182=STYLED_ITEM('',(#189),#48);
#183=PRESENTATION_STYLE_ASSIGNMENT((#190));
#184=PRESENTATION_STYLE_ASSIGNMENT((#164));
#185=PRESENTATION_STYLE_ASSIGNMENT((#165));
#186=PRESENTATION_STYLE_ASSIGNMENT((#166));
#187=PRESENTATION_STYLE_ASSIGNMENT((#167));
#188=PRESENTATION_STYLE_ASSIGNMENT((#37));
#189=PRESENTATION_STYLE_ASSIGNMENT((#38));
#190=POINT_STYLE('',#191,POSITIVE_LENGTH_MEASURE(3.),#192);
#191=PRE_DEFINED_POINT_MARKER_SYMBOL('plus');
#192=COLOUR_RGB('Medium Royal',0.2,0.4,0.8);
#193=COLOUR_RGB('Strong Stone',0.576470588235294,0.54508278019379,0.392156862745098);
#194=COLOUR_RGB('Light Gray',0.8,0.8,0.8);
#195=COLOUR_RGB('Medium Gray',0.490196078431373,0.490196078431373,0.490196078431373);
#196=AXIS2_PLACEMENT_3D('',#274,#222,#223);
#197=AXIS2_PLACEMENT_3D('MCS',#292,#224,#225);
#198=AXIS2_PLACEMENT_3D('PCS',#293,#226,#227);
#199=AXIS2_PLACEMENT_3D('CIP',#294,#228,#229);
#200=AXIS2_PLACEMENT_3D('',#295,#230,#231);
#201=AXIS2_PLACEMENT_3D('',#297,#232,#233);
#202=AXIS2_PLACEMENT_3D('',#299,#234,#235);
#203=AXIS2_PLACEMENT_3D('',#300,#236,#237);
#204=AXIS2_PLACEMENT_3D('',#302,#238,#239);
#205=AXIS2_PLACEMENT_3D('',#303,#240,#241);
#206=AXIS2_PLACEMENT_3D('',#304,#242,#243);
#207=AXIS2_PLACEMENT_3D('',#305,#244,#245);
#208=AXIS2_PLACEMENT_3D('',#307,#246,#247);
#209=AXIS2_PLACEMENT_3D('',#308,#248,#249);
#210=AXIS2_PLACEMENT_3D('',#310,#250,#251);
#211=AXIS2_PLACEMENT_3D('',#311,#252,#253);
#212=AXIS2_PLACEMENT_3D('',#313,#254,#255);
#213=AXIS2_PLACEMENT_3D('',#314,#256,#257);
#214=AXIS2_PLACEMENT_3D('',#316,#258,#259);
#215=AXIS2_PLACEMENT_3D('',#317,#260,#261);
#216=AXIS2_PLACEMENT_3D('',#319,#262,#263);
#217=AXIS2_PLACEMENT_3D('',#320,#264,#265);
#218=AXIS2_PLACEMENT_3D('',#322,#266,#267);
#219=AXIS2_PLACEMENT_3D('',#323,#268,#269);
#220=AXIS2_PLACEMENT_3D('',#325,#270,#271);
#221=AXIS2_PLACEMENT_3D('',#326,#272,#273);
#222=DIRECTION('',(0.,0.,1.));
#223=DIRECTION('',(1.,0.,0.));
#224=DIRECTION('',(0.,0.,1.));
#225=DIRECTION('',(1.,0.,0.));
#226=DIRECTION('',(0.,0.,1.));
#227=DIRECTION('',(1.,0.,0.));
#228=DIRECTION('',(0.,0.,1.));
#229=DIRECTION('',(1.,0.,0.));
#230=DIRECTION('',(0.,0.,-1.));
#231=DIRECTION('',(-1.,2.88657986402515E-16,0.));
#232=DIRECTION('',(0.,0.,-1.));
#233=DIRECTION('',(-1.,-7.77156117237635E-16,0.));
#234=DIRECTION('',(-8.67361737988379E-17,0.,-1.));
#235=DIRECTION('',(-1.,0.,8.67361737988379E-17));
#236=DIRECTION('',(0.,0.,-1.));
#237=DIRECTION('',(-1.,-4.9343245538891E-16,0.));
#238=DIRECTION('',(0.,0.,-1.));
#239=DIRECTION('',(1.,0.,0.));
#240=DIRECTION('',(-3.46944695195331E-16,3.46944695195331E-16,-1.));
#241=DIRECTION('',(-1.,0.,3.46944695195331E-16));
#242=DIRECTION('',(0.,0.,1.));
#243=DIRECTION('',(-1.,0.,0.));
#244=DIRECTION('',(0.,0.,-1.));
#245=DIRECTION('',(-1.,2.01858731750028E-16,0.));
#246=DIRECTION('',(0.,0.,1.));
#247=DIRECTION('',(-1.,0.,0.));
#248=DIRECTION('',(-2.42696599828166E-31,-1.37406759794884E-15,-1.));
#249=DIRECTION('',(-1.,1.76626390281275E-16,0.));
#250=DIRECTION('',(7.88510670898549E-16,0.,-1.));
#251=DIRECTION('',(-1.,0.,-7.88510670898549E-16));
#252=DIRECTION('',(-2.94937111437539E-16,9.59523792436364E-16,-1.));
#253=DIRECTION('',(-1.,2.21202833578154E-16,2.88024522888221E-16));
#254=DIRECTION('',(0.,0.,1.));
#255=DIRECTION('',(-1.,0.,0.));
#256=DIRECTION('',(0.,0.,-1.));
#257=DIRECTION('',(-1.,0.,0.));
#258=DIRECTION('',(-4.1481958442644E-32,2.88034575850345E-16,-1.));
#259=DIRECTION('',(0.,1.,-3.93104660331752E-16));
#260=DIRECTION('',(0.,0.,-1.));
#261=DIRECTION('',(-1.,0.,0.));
#262=DIRECTION('',(0.,0.,-1.));
#263=DIRECTION('',(-1.,0.,0.));
#264=DIRECTION('',(0.,0.,-1.));
#265=DIRECTION('',(-1.,5.03606320448525E-16,0.));
#266=DIRECTION('',(0.,0.,1.));
#267=DIRECTION('',(-1.,0.,0.));
#268=DIRECTION('',(0.,0.,-1.));
#269=DIRECTION('',(-1.,5.03606320448525E-16,0.));
#270=DIRECTION('',(0.,0.,-1.));
#271=DIRECTION('',(-1.,0.,0.));
#272=DIRECTION('',(0.,0.,-1.));
#273=DIRECTION('',(-1.,0.,0.));
#274=CARTESIAN_POINT('',(0.,0.,0.));
#275=CARTESIAN_POINT('CRP',(-5.,0.,-11.8));
#276=CARTESIAN_POINT('',(-4.50000000000044,-4.33680868994201E-15,-11.8000003177778));
#277=CARTESIAN_POINT('',(-4.79289321881388,-4.33680868994201E-15,-11.8000003177778));
#278=CARTESIAN_POINT('',(-5.00000000000043,-4.33680868994201E-15,-11.5928935365912));
#279=CARTESIAN_POINT('',(-5.00000000000043,-4.33680868994201E-15,-11.3000003177778));
#280=CARTESIAN_POINT('',(-5.00000000000044,-4.33680868994201E-15,-8.80000021185187));
#281=CARTESIAN_POINT('',(-5.00000000000014,0.,-6.30000010592593));
#282=CARTESIAN_POINT('',(-5.00000000000014,0.,-3.8));
#283=CARTESIAN_POINT('',(-3.33333333333323,0.,-3.8));
#284=CARTESIAN_POINT('',(-1.66666666666661,0.,-3.8));
#285=CARTESIAN_POINT('',(0.,0.,-3.8));
#286=CARTESIAN_POINT('',(0.,0.,-6.4666667725926));
#287=CARTESIAN_POINT('',(0.,0.,-9.1333335451852));
#288=CARTESIAN_POINT('',(0.,0.,-11.8000003177778));
#289=CARTESIAN_POINT('',(-1.50000000000014,0.,-11.8000003177778));
#290=CARTESIAN_POINT('',(-3.00000000000029,0.,-11.8000003177778));
#291=CARTESIAN_POINT('',(-4.50000000000044,0.,-11.8000003177778));
#292=CARTESIAN_POINT('',(0.,0.,0.));
#293=CARTESIAN_POINT('',(0.,0.,0.));
#294=CARTESIAN_POINT('',(0.,0.,-11.8000003177778));
#295=CARTESIAN_POINT('',(1.38777878078145E-16,-1.4432899320127E-15,-11.3000003177778));
#296=CARTESIAN_POINT('',(-5.00000000000044,2.11852293882596E-30,-11.3000003177778));
#297=CARTESIAN_POINT('',(-2.42861286636753E-15,3.88578058618805E-15,-3.8));
#298=CARTESIAN_POINT('',(-4.99999999999984,-7.70371977754894E-31,-3.8));
#299=CARTESIAN_POINT('',(-7.5902648935515E-17,0.,-3.04879996822222));
#300=CARTESIAN_POINT('',(6.93889390390723E-17,2.22044604925031E-15,-11.8000003177778));
#301=CARTESIAN_POINT('',(-4.50000000000044,-1.54074395550979E-30,-11.8000003177778));
#302=CARTESIAN_POINT('',(-4.50100000000044,4.50100000000044,-11.8000003177778));
#303=CARTESIAN_POINT('',(4.33680868994202E-15,-4.33680868994201E-15,-11.3000003177778));
#304=CARTESIAN_POINT('',(5.00099999999984,5.00099999999984,-3.8));
#305=CARTESIAN_POINT('',(0.,-4.44089209850063E-16,11.2));
#306=CARTESIAN_POINT('',(-2.2,-1.34815096107107E-30,11.2));
#307=CARTESIAN_POINT('',(2.201,2.201,11.2));
#308=CARTESIAN_POINT('',(-4.57966997657877E-16,-3.88578058618805E-16,7.7));
#309=CARTESIAN_POINT('',(-2.2,0.,7.7));
#310=CARTESIAN_POINT('',(9.24308971085647E-16,0.,11.5512));
#311=CARTESIAN_POINT('',(1.94289029309402E-16,-6.66133814775094E-16,7.7));
#312=CARTESIAN_POINT('',(-3.01141628251222,-1.92592994438724E-31,7.7));
#313=CARTESIAN_POINT('',(3.01241628251222,3.01241628251222,7.7));
#314=CARTESIAN_POINT('',(-4.85722573273506E-16,0.,2.1));
#315=CARTESIAN_POINT('',(-3.6,0.,2.1));
#316=CARTESIAN_POINT('',(-1.28170617808079E-15,1.20563281580388E-15,7.701));
#317=CARTESIAN_POINT('',(-4.85722573273506E-16,0.,2.450059740592E-15));
#318=CARTESIAN_POINT('',(-3.6,0.,2.450059740592E-15));
#319=CARTESIAN_POINT('',(-5.31629474188157E-16,0.,2.3112));
#320=CARTESIAN_POINT('',(1.98452365651747E-15,-2.44249065417534E-15,0.));
#321=CARTESIAN_POINT('',(-4.85,6.16297582203915E-30,0.));
#322=CARTESIAN_POINT('',(4.851,4.851,1.225029870296E-15));
#323=CARTESIAN_POINT('',(1.98452365651747E-15,-2.44249065417534E-15,-3.8));
#324=CARTESIAN_POINT('',(-4.85,6.16297582203915E-30,-3.8));
#325=CARTESIAN_POINT('',(7.2788606537287E-16,0.,0.3812));
#326=CARTESIAN_POINT('',(4.851,-4.851,-3.8));
#327=MECHANICAL_DESIGN_GEOMETRIC_PRESENTATION_REPRESENTATION('',(#176,#177,
#178,#179,#180,#181,#182),#328);
#328=(
GEOMETRIC_REPRESENTATION_CONTEXT(3)
GLOBAL_UNCERTAINTY_ASSIGNED_CONTEXT((#329))
GLOBAL_UNIT_ASSIGNED_CONTEXT((#335,#331,#330))
REPRESENTATION_CONTEXT('XVE510E10100D1R050Z2_Basic',
'TOP_LEVEL_ASSEMBLY_PART')
);
#329=UNCERTAINTY_MEASURE_WITH_UNIT(LENGTH_MEASURE(2.E-5),#335,
'DISTANCE_ACCURACY_VALUE','Maximum Tolerance applied to model');
#330=(
NAMED_UNIT(*)
SI_UNIT($,.STERADIAN.)
SOLID_ANGLE_UNIT()
);
#331=(
CONVERSION_BASED_UNIT('DEGREE',#333)
NAMED_UNIT(#332)
PLANE_ANGLE_UNIT()
);
#332=DIMENSIONAL_EXPONENTS(0.,0.,0.,0.,0.,0.,0.);
#333=PLANE_ANGLE_MEASURE_WITH_UNIT(PLANE_ANGLE_MEASURE(0.0174532925),#334);
#334=(
NAMED_UNIT(*)
PLANE_ANGLE_UNIT()
SI_UNIT($,.RADIAN.)
);
#335=(
LENGTH_UNIT()
NAMED_UNIT(*)
SI_UNIT(.MILLI.,.METRE.)
);
ENDSEC;
END-ISO-10303-21;
