ISO-10303-21;
HEADER;
/* Generated by software containing ST-Developer
 * from STEP Tools, Inc. (www.steptools.com) 
 */
/* OPTION: using custom schema-name function */

FILE_DESCRIPTION(
/* description */ (''),
/* implementation_level */ '2;1');

FILE_NAME(
/* name */ 'XVK310E16160D1K500Z4_Basic.stp',
/* time_stamp */ '2022-07-20T14:44:29+05:00',
/* author */ (''),
/* organization */ (''),
/* preprocessor_version */ 'ST-DEVELOPER v16.7',
/* originating_system */ 'SIEMENS PLM Software NX 12.0',
/* authorisation */ '');

FILE_SCHEMA (('AUTOMOTIVE_DESIGN { 1 0 10303 214 3 1 1 1 }'));
ENDSEC;

DATA;
#10=CONSTRUCTIVE_GEOMETRY_REPRESENTATION_RELATIONSHIP(
'supplemental geometry','',#34,#11);
#11=CONSTRUCTIVE_GEOMETRY_REPRESENTATION('supplemental geometry',(#230,
#231,#232),#388);
#12=GEOMETRICALLY_BOUNDED_WIREFRAME_SHAPE_REPRESENTATION(
'inco1898A528auer-None',(#35),#388);
#13=PROPERTY_DEFINITION_REPRESENTATION(#17,#15);
#14=PROPERTY_DEFINITION_REPRESENTATION(#18,#16);
#15=REPRESENTATION('',(#19),#388);
#16=REPRESENTATION('',(#20),#388);
#17=PROPERTY_DEFINITION('pmi validation property','',#25);
#18=PROPERTY_DEFINITION('pmi validation property','',#25);
#19=VALUE_REPRESENTATION_ITEM('number of annotations',COUNT_MEASURE(0.));
#20=VALUE_REPRESENTATION_ITEM('number of views',COUNT_MEASURE(0.));
#21=SHAPE_REPRESENTATION_RELATIONSHIP('None',
'relationship between inco1898A528auer-None and inco1898A528auer-None',
#34,#23);
#22=SHAPE_REPRESENTATION_RELATIONSHIP('None',
'relationship between inco1898A528auer-None and inco1898A528auer-None',
#34,#12);
#23=ADVANCED_BREP_SHAPE_REPRESENTATION('inco1898A528auer-None',(#46,#47),
#388);
#24=SHAPE_DEFINITION_REPRESENTATION(#25,#34);
#25=PRODUCT_DEFINITION_SHAPE('','',#26);
#26=PRODUCT_DEFINITION(' ','',#28,#27);
#27=PRODUCT_DEFINITION_CONTEXT('part definition',#33,'design');
#28=PRODUCT_DEFINITION_FORMATION_WITH_SPECIFIED_SOURCE(' ',' ',#30,
 .NOT_KNOWN.);
#29=PRODUCT_RELATED_PRODUCT_CATEGORY('part','',(#30));
#30=PRODUCT('inco1898A528auer','inco1898A528auer',' ',(#31));
#31=PRODUCT_CONTEXT(' ',#33,'mechanical');
#32=APPLICATION_PROTOCOL_DEFINITION('international standard',
'automotive_design',2010,#33);
#33=APPLICATION_CONTEXT(
'core data for automotive mechanical design processes');
#34=SHAPE_REPRESENTATION('inco1898A528auer-None',(#229),#388);
#35=GEOMETRIC_CURVE_SET('None',(#326,#206));
#36=SURFACE_STYLE_USAGE(.BOTH.,#38);
#37=SURFACE_STYLE_USAGE(.BOTH.,#39);
#38=SURFACE_SIDE_STYLE('',(#40));
#39=SURFACE_SIDE_STYLE('',(#41));
#40=SURFACE_STYLE_FILL_AREA(#42);
#41=SURFACE_STYLE_FILL_AREA(#43);
#42=FILL_AREA_STYLE('',(#44));
#43=FILL_AREA_STYLE('',(#45));
#44=FILL_AREA_STYLE_COLOUR('',#227);
#45=FILL_AREA_STYLE_COLOUR('',#228);
#46=MANIFOLD_SOLID_BREP('NOCUT',#48);
#47=MANIFOLD_SOLID_BREP('CUT',#49);
#48=CLOSED_SHELL('',(#81,#82,#83,#84,#85,#86,#87,#88,#89,#90,#91));
#49=CLOSED_SHELL('',(#92,#93,#94,#95));
#50=CONICAL_SURFACE('',#244,5.63139643392314,2.19999999999973);
#51=CONICAL_SURFACE('',#246,4.55926654610296,5.99999999999999);
#52=CONICAL_SURFACE('',#253,3.299,45.);
#53=TOROIDAL_SURFACE('',#242,6.12392860091981,0.4);
#54=TOROIDAL_SURFACE('',#250,4.,0.5);
#55=TOROIDAL_SURFACE('',#258,7.99999999999989,5.);
#56=CYLINDRICAL_SURFACE('',#238,7.74999999999999);
#57=CYLINDRICAL_SURFACE('',#252,3.5);
#58=CYLINDRICAL_SURFACE('',#256,7.99999999999999);
#59=FACE_BOUND('',#108,.T.);
#60=FACE_BOUND('',#109,.T.);
#61=FACE_BOUND('',#110,.T.);
#62=FACE_BOUND('',#111,.T.);
#63=FACE_BOUND('',#112,.T.);
#64=FACE_BOUND('',#113,.T.);
#65=FACE_BOUND('',#114,.T.);
#66=FACE_BOUND('',#115,.T.);
#67=FACE_BOUND('',#116,.T.);
#68=FACE_BOUND('',#117,.T.);
#69=FACE_BOUND('',#118,.T.);
#70=FACE_BOUND('',#119,.T.);
#71=FACE_BOUND('',#120,.T.);
#72=FACE_BOUND('',#121,.T.);
#73=FACE_BOUND('',#122,.T.);
#74=FACE_BOUND('',#123,.T.);
#75=FACE_BOUND('',#124,.T.);
#76=FACE_BOUND('',#125,.T.);
#77=FACE_BOUND('',#126,.T.);
#78=FACE_BOUND('',#127,.T.);
#79=FACE_BOUND('',#128,.T.);
#80=FACE_BOUND('',#129,.T.);
#81=ADVANCED_FACE('',(#102),#96,.T.);
#82=ADVANCED_FACE('',(#103),#97,.T.);
#83=ADVANCED_FACE('',(#59,#60),#56,.T.);
#84=ADVANCED_FACE('',(#61,#62),#98,.T.);
#85=ADVANCED_FACE('',(#63,#64),#53,.F.);
#86=ADVANCED_FACE('',(#65,#66),#50,.T.);
#87=ADVANCED_FACE('',(#67,#68),#51,.T.);
#88=ADVANCED_FACE('',(#69,#70),#99,.T.);
#89=ADVANCED_FACE('',(#71,#72),#54,.F.);
#90=ADVANCED_FACE('',(#73,#74),#57,.T.);
#91=ADVANCED_FACE('',(#75,#76),#52,.T.);
#92=ADVANCED_FACE('',(#77,#78),#58,.T.);
#93=ADVANCED_FACE('',(#79,#80),#55,.F.);
#94=ADVANCED_FACE('',(#104),#100,.T.);
#95=ADVANCED_FACE('',(#105),#101,.T.);
#96=PLANE('',#234);
#97=PLANE('',#236);
#98=PLANE('',#240);
#99=PLANE('',#248);
#100=PLANE('',#259);
#101=PLANE('',#260);
#102=FACE_OUTER_BOUND('',#106,.T.);
#103=FACE_OUTER_BOUND('',#107,.T.);
#104=FACE_OUTER_BOUND('',#130,.T.);
#105=FACE_OUTER_BOUND('',#131,.T.);
#106=EDGE_LOOP('',(#132));
#107=EDGE_LOOP('',(#133));
#108=EDGE_LOOP('',(#134));
#109=EDGE_LOOP('',(#135));
#110=EDGE_LOOP('',(#136));
#111=EDGE_LOOP('',(#137));
#112=EDGE_LOOP('',(#138));
#113=EDGE_LOOP('',(#139));
#114=EDGE_LOOP('',(#140));
#115=EDGE_LOOP('',(#141));
#116=EDGE_LOOP('',(#142));
#117=EDGE_LOOP('',(#143));
#118=EDGE_LOOP('',(#144));
#119=EDGE_LOOP('',(#145));
#120=EDGE_LOOP('',(#146));
#121=EDGE_LOOP('',(#147));
#122=EDGE_LOOP('',(#148));
#123=EDGE_LOOP('',(#149));
#124=EDGE_LOOP('',(#150));
#125=EDGE_LOOP('',(#151));
#126=EDGE_LOOP('',(#152));
#127=EDGE_LOOP('',(#153));
#128=EDGE_LOOP('',(#154));
#129=EDGE_LOOP('',(#155));
#130=EDGE_LOOP('',(#156));
#131=EDGE_LOOP('',(#157));
#132=ORIENTED_EDGE('',*,*,#171,.F.);
#133=ORIENTED_EDGE('',*,*,#172,.T.);
#134=ORIENTED_EDGE('',*,*,#173,.T.);
#135=ORIENTED_EDGE('',*,*,#172,.F.);
#136=ORIENTED_EDGE('',*,*,#174,.T.);
#137=ORIENTED_EDGE('',*,*,#173,.F.);
#138=ORIENTED_EDGE('',*,*,#174,.F.);
#139=ORIENTED_EDGE('',*,*,#175,.T.);
#140=ORIENTED_EDGE('',*,*,#176,.T.);
#141=ORIENTED_EDGE('',*,*,#175,.F.);
#142=ORIENTED_EDGE('',*,*,#177,.T.);
#143=ORIENTED_EDGE('',*,*,#176,.F.);
#144=ORIENTED_EDGE('',*,*,#178,.T.);
#145=ORIENTED_EDGE('',*,*,#177,.F.);
#146=ORIENTED_EDGE('',*,*,#178,.F.);
#147=ORIENTED_EDGE('',*,*,#179,.T.);
#148=ORIENTED_EDGE('',*,*,#180,.T.);
#149=ORIENTED_EDGE('',*,*,#179,.F.);
#150=ORIENTED_EDGE('',*,*,#180,.F.);
#151=ORIENTED_EDGE('',*,*,#171,.T.);
#152=ORIENTED_EDGE('',*,*,#181,.T.);
#153=ORIENTED_EDGE('',*,*,#182,.F.);
#154=ORIENTED_EDGE('',*,*,#183,.F.);
#155=ORIENTED_EDGE('',*,*,#182,.T.);
#156=ORIENTED_EDGE('',*,*,#183,.T.);
#157=ORIENTED_EDGE('',*,*,#181,.F.);
#158=VERTEX_POINT('',#347);
#159=VERTEX_POINT('',#350);
#160=VERTEX_POINT('',#353);
#161=VERTEX_POINT('',#356);
#162=VERTEX_POINT('',#359);
#163=VERTEX_POINT('',#362);
#164=VERTEX_POINT('',#365);
#165=VERTEX_POINT('',#368);
#166=VERTEX_POINT('',#371);
#167=VERTEX_POINT('',#374);
#168=VERTEX_POINT('',#378);
#169=VERTEX_POINT('',#380);
#170=VERTEX_POINT('',#383);
#171=EDGE_CURVE('',#158,#158,#184,.T.);
#172=EDGE_CURVE('',#159,#159,#185,.T.);
#173=EDGE_CURVE('',#160,#160,#186,.T.);
#174=EDGE_CURVE('',#161,#161,#187,.T.);
#175=EDGE_CURVE('',#162,#162,#188,.T.);
#176=EDGE_CURVE('',#163,#163,#189,.T.);
#177=EDGE_CURVE('',#164,#164,#190,.T.);
#178=EDGE_CURVE('',#165,#165,#191,.T.);
#179=EDGE_CURVE('',#166,#166,#192,.T.);
#180=EDGE_CURVE('',#167,#167,#193,.T.);
#181=EDGE_CURVE('',#168,#168,#194,.T.);
#182=EDGE_CURVE('',#169,#169,#195,.T.);
#183=EDGE_CURVE('',#170,#170,#196,.T.);
#184=CIRCLE('',#233,3.3);
#185=CIRCLE('',#235,7.75);
#186=CIRCLE('',#237,7.75);
#187=CIRCLE('',#239,6.12392860091981);
#188=CIRCLE('',#241,5.72422343435556);
#189=CIRCLE('',#243,5.63143485004812);
#190=CIRCLE('',#245,4.55937165033822);
#191=CIRCLE('',#247,4.);
#192=CIRCLE('',#249,3.5);
#193=CIRCLE('',#251,3.5);
#194=CIRCLE('',#254,8.);
#195=CIRCLE('',#255,7.99999999999987);
#196=CIRCLE('',#257,2.99999999999987);
#197=CURVE_STYLE('',#202,POSITIVE_LENGTH_MEASURE(0.18),#201);
#198=CURVE_STYLE('',#203,POSITIVE_LENGTH_MEASURE(0.18),#226);
#199=CURVE_STYLE('',#204,POSITIVE_LENGTH_MEASURE(0.18),#226);
#200=CURVE_STYLE('',#205,POSITIVE_LENGTH_MEASURE(0.18),#226);
#201=DRAUGHTING_PRE_DEFINED_COLOUR('blue');
#202=DRAUGHTING_PRE_DEFINED_CURVE_FONT('continuous');
#203=DRAUGHTING_PRE_DEFINED_CURVE_FONT('continuous');
#204=DRAUGHTING_PRE_DEFINED_CURVE_FONT('continuous');
#205=DRAUGHTING_PRE_DEFINED_CURVE_FONT('continuous');
#206=TRIMMED_CURVE('CUTTING PART LINE',#207,(PARAMETER_VALUE(0.)),(
PARAMETER_VALUE(1.)),.T.,.PARAMETER.);
#207=(
BOUNDED_CURVE()
B_SPLINE_CURVE(3,(#327,#328,#329,#330,#331,#332,#333,#334,#335,#336,#337,
#338,#339,#340,#341,#342),.UNSPECIFIED.,.T.,.F.)
B_SPLINE_CURVE_WITH_KNOTS((4,3,3,3,3,4),(0.,0.288279426338682,0.559601239363317,
0.678304532561601,0.918121399903539,1.),.UNSPECIFIED.)
CURVE()
GEOMETRIC_REPRESENTATION_ITEM()
RATIONAL_B_SPLINE_CURVE((1.,1.,1.,1.,1.,1.,1.,1.,1.,1.,0.80473785412436,
0.80473785412436,1.,1.,1.,1.))
REPRESENTATION_ITEM('CUTTING PART LINE')
);
#208=PRESENTATION_LAYER_ASSIGNMENT('1','Layer 1',(#326,#206,#230,#231,#232,
#46,#47));
#209=STYLED_ITEM('',(#216),#326);
#210=STYLED_ITEM('',(#217),#206);
#211=STYLED_ITEM('',(#218),#230);
#212=STYLED_ITEM('',(#219),#231);
#213=STYLED_ITEM('',(#220),#232);
#214=STYLED_ITEM('',(#221),#46);
#215=STYLED_ITEM('',(#222),#47);
#216=PRESENTATION_STYLE_ASSIGNMENT((#223));
#217=PRESENTATION_STYLE_ASSIGNMENT((#197));
#218=PRESENTATION_STYLE_ASSIGNMENT((#198));
#219=PRESENTATION_STYLE_ASSIGNMENT((#199));
#220=PRESENTATION_STYLE_ASSIGNMENT((#200));
#221=PRESENTATION_STYLE_ASSIGNMENT((#36));
#222=PRESENTATION_STYLE_ASSIGNMENT((#37));
#223=POINT_STYLE('',#224,POSITIVE_LENGTH_MEASURE(3.),#225);
#224=PRE_DEFINED_POINT_MARKER_SYMBOL('plus');
#225=COLOUR_RGB('Medium Royal',0.2,0.4,0.8);
#226=COLOUR_RGB('Strong Stone',0.576470588235294,0.54508278019379,0.392156862745098);
#227=COLOUR_RGB('Medium Gray',0.490196078431373,0.490196078431373,0.490196078431373);
#228=COLOUR_RGB('Light Gray',0.8,0.8,0.8);
#229=AXIS2_PLACEMENT_3D('',#325,#261,#262);
#230=AXIS2_PLACEMENT_3D('MCS',#343,#263,#264);
#231=AXIS2_PLACEMENT_3D('PCS',#344,#265,#266);
#232=AXIS2_PLACEMENT_3D('CIP',#345,#267,#268);
#233=AXIS2_PLACEMENT_3D('',#346,#269,#270);
#234=AXIS2_PLACEMENT_3D('',#348,#271,#272);
#235=AXIS2_PLACEMENT_3D('',#349,#273,#274);
#236=AXIS2_PLACEMENT_3D('',#351,#275,#276);
#237=AXIS2_PLACEMENT_3D('',#352,#277,#278);
#238=AXIS2_PLACEMENT_3D('',#354,#279,#280);
#239=AXIS2_PLACEMENT_3D('',#355,#281,#282);
#240=AXIS2_PLACEMENT_3D('',#357,#283,#284);
#241=AXIS2_PLACEMENT_3D('',#358,#285,#286);
#242=AXIS2_PLACEMENT_3D('',#360,#287,#288);
#243=AXIS2_PLACEMENT_3D('',#361,#289,#290);
#244=AXIS2_PLACEMENT_3D('',#363,#291,#292);
#245=AXIS2_PLACEMENT_3D('',#364,#293,#294);
#246=AXIS2_PLACEMENT_3D('',#366,#295,#296);
#247=AXIS2_PLACEMENT_3D('',#367,#297,#298);
#248=AXIS2_PLACEMENT_3D('',#369,#299,#300);
#249=AXIS2_PLACEMENT_3D('',#370,#301,#302);
#250=AXIS2_PLACEMENT_3D('',#372,#303,#304);
#251=AXIS2_PLACEMENT_3D('',#373,#305,#306);
#252=AXIS2_PLACEMENT_3D('',#375,#307,#308);
#253=AXIS2_PLACEMENT_3D('',#376,#309,#310);
#254=AXIS2_PLACEMENT_3D('',#377,#311,#312);
#255=AXIS2_PLACEMENT_3D('',#379,#313,#314);
#256=AXIS2_PLACEMENT_3D('',#381,#315,#316);
#257=AXIS2_PLACEMENT_3D('',#382,#317,#318);
#258=AXIS2_PLACEMENT_3D('',#384,#319,#320);
#259=AXIS2_PLACEMENT_3D('',#385,#321,#322);
#260=AXIS2_PLACEMENT_3D('',#386,#323,#324);
#261=DIRECTION('',(0.,0.,1.));
#262=DIRECTION('',(1.,0.,0.));
#263=DIRECTION('',(0.,0.,1.));
#264=DIRECTION('',(1.,0.,0.));
#265=DIRECTION('',(0.,0.,1.));
#266=DIRECTION('',(1.,0.,0.));
#267=DIRECTION('',(0.,0.,1.));
#268=DIRECTION('',(1.,0.,0.));
#269=DIRECTION('',(0.,0.,-1.));
#270=DIRECTION('',(-1.,3.39585262266975E-16,0.));
#271=DIRECTION('',(0.,0.,1.));
#272=DIRECTION('',(1.,0.,0.));
#273=DIRECTION('',(0.,0.,-1.));
#274=DIRECTION('',(-1.,-2.56515239157345E-16,0.));
#275=DIRECTION('',(0.,0.,-1.));
#276=DIRECTION('',(-1.,0.,0.));
#277=DIRECTION('',(0.,0.,-1.));
#278=DIRECTION('',(-1.,-2.56515239157345E-16,0.));
#279=DIRECTION('',(0.,0.,-1.));
#280=DIRECTION('',(-1.,0.,0.));
#281=DIRECTION('',(0.,0.,-1.));
#282=DIRECTION('',(-1.,-2.33980780073371E-16,0.));
#283=DIRECTION('',(0.,0.,1.));
#284=DIRECTION('',(1.,0.,0.));
#285=DIRECTION('',(-5.18128710141688E-33,-3.30061006326243E-17,-1.));
#286=DIRECTION('',(-1.,1.56979679577646E-16,0.));
#287=DIRECTION('',(0.,0.,1.));
#288=DIRECTION('',(1.,0.,0.));
#289=DIRECTION('',(-5.78749929754419E-33,-2.68399510602669E-16,-1.));
#290=DIRECTION('',(-1.,2.15630024233235E-17,0.));
#291=DIRECTION('',(-1.69424746238753E-15,7.70112482903421E-16,-1.));
#292=DIRECTION('',(-1.,-8.30754325473996E-32,2.69773540672544E-15));
#293=DIRECTION('',(0.,0.,-1.));
#294=DIRECTION('',(-1.,-5.0907453676973E-16,0.));
#295=DIRECTION('',(3.80483013755703E-16,0.,-1.));
#296=DIRECTION('',(-1.,0.,3.63827885196904E-16));
#297=DIRECTION('',(0.,0.,-1.));
#298=DIRECTION('',(-1.,3.35668992601512E-16,0.));
#299=DIRECTION('',(0.,0.,1.));
#300=DIRECTION('',(1.,0.,0.));
#301=DIRECTION('',(2.68834245302372E-31,-1.72739926599283E-15,-1.));
#302=DIRECTION('',(-1.,-1.55629477559062E-16,0.));
#303=DIRECTION('',(-3.85494105772624E-16,-3.85494105772624E-16,1.));
#304=DIRECTION('',(0.,-1.,-3.85494105772624E-16));
#305=DIRECTION('',(0.,0.,-1.));
#306=DIRECTION('',(-1.,-1.55629477559062E-16,0.));
#307=DIRECTION('',(0.,0.,-1.));
#308=DIRECTION('',(-1.,0.,0.));
#309=DIRECTION('',(0.,0.,-1.));
#310=DIRECTION('',(-1.,0.,4.14964665801954E-17));
#311=DIRECTION('',(0.,0.,-1.));
#312=DIRECTION('',(0.923782503914851,0.382917596175481,0.));
#313=DIRECTION('',(0.,0.,-1.));
#314=DIRECTION('',(-0.923782503914851,-0.38291759617548,0.));
#315=DIRECTION('',(0.,0.,1.));
#316=DIRECTION('',(1.,0.,0.));
#317=DIRECTION('',(0.,0.,-1.));
#318=DIRECTION('',(-0.923782503914852,-0.382917596175479,0.));
#319=DIRECTION('',(0.,0.,1.));
#320=DIRECTION('',(1.,0.,0.));
#321=DIRECTION('',(0.,0.,-1.));
#322=DIRECTION('',(-0.923782503914851,-0.382917596175481,0.));
#323=DIRECTION('',(0.,0.,1.));
#324=DIRECTION('',(1.,0.,0.));
#325=CARTESIAN_POINT('',(0.,0.,0.));
#326=CARTESIAN_POINT('CRP',(-3.,0.,-18.7));
#327=CARTESIAN_POINT('',(0.,0.,-18.7));
#328=CARTESIAN_POINT('',(0.,0.,-15.8666666666666));
#329=CARTESIAN_POINT('',(0.,0.,-13.0333333333332));
#330=CARTESIAN_POINT('',(0.,0.,-10.1999999999998));
#331=CARTESIAN_POINT('',(-2.66666666666666,0.,-10.1999999999998));
#332=CARTESIAN_POINT('',(-5.33333333333331,0.,-10.1999999999998));
#333=CARTESIAN_POINT('',(-7.99999999999997,0.,-10.1999999999998));
#334=CARTESIAN_POINT('',(-7.99999999999993,0.,-11.3666666666665));
#335=CARTESIAN_POINT('',(-7.99999999999993,0.,-12.5333333333333));
#336=CARTESIAN_POINT('',(-7.99999999999993,0.,-13.7));
#337=CARTESIAN_POINT('',(-5.07106781186536,2.94902990916057E-14,-13.6999999999999));
#338=CARTESIAN_POINT('',(-2.99999999999983,2.94902990916057E-14,-15.7710678118654));
#339=CARTESIAN_POINT('',(-2.99999999999983,2.94902990916057E-14,-18.7));
#340=CARTESIAN_POINT('',(-1.99999999999989,0.,-18.7));
#341=CARTESIAN_POINT('',(-0.999999999999947,0.,-18.7));
#342=CARTESIAN_POINT('',(0.,0.,-18.7));
#343=CARTESIAN_POINT('',(0.,0.,0.));
#344=CARTESIAN_POINT('',(0.,0.,0.));
#345=CARTESIAN_POINT('',(0.,0.,-18.7));
#346=CARTESIAN_POINT('',(-3.88578058618805E-16,-1.55431223447522E-15,17.));
#347=CARTESIAN_POINT('',(-3.3,-4.33680868994203E-16,17.));
#348=CARTESIAN_POINT('',(-3.301,-3.301,17.));
#349=CARTESIAN_POINT('',(2.02615701994091E-15,1.55431223447522E-15,-10.1999999999998));
#350=CARTESIAN_POINT('',(-7.75,-4.33680868994203E-16,-10.1999999999998));
#351=CARTESIAN_POINT('',(7.751,-7.751,-10.1999999999998));
#352=CARTESIAN_POINT('',(2.02615701994091E-15,1.55431223447522E-15,0.));
#353=CARTESIAN_POINT('',(-7.75,-4.33680868994203E-16,0.));
#354=CARTESIAN_POINT('',(-2.73701184621738E-15,4.33680868994202E-15,1.02119999999998));
#355=CARTESIAN_POINT('',(-8.60422844084496E-16,9.99200722162641E-16,0.));
#356=CARTESIAN_POINT('',(-6.12392860091981,-4.33680868994203E-16,0.));
#357=CARTESIAN_POINT('',(-7.751,-7.751,0.));
#358=CARTESIAN_POINT('',(5.27355936696949E-16,-1.33226762955019E-15,0.38464487636499));
#359=CARTESIAN_POINT('',(-5.72422343435556,-4.33680868994202E-16,0.38464487636499));
#360=CARTESIAN_POINT('',(2.60208521396521E-15,-8.88178419700125E-16,0.400000000000001));
#361=CARTESIAN_POINT('',(2.35922392732846E-16,-5.55111512312578E-16,2.80000000000005));
#362=CARTESIAN_POINT('',(-5.63143485004812,-4.33680868994202E-16,2.80000000000005));
#363=CARTESIAN_POINT('',(1.66730684431243E-17,-8.673617379884E-16,2.80100000000005));
#364=CARTESIAN_POINT('',(-7.7715611723761E-16,1.88737914186277E-15,13.));
#365=CARTESIAN_POINT('',(-4.55937165033822,-4.33680868994199E-16,13.));
#366=CARTESIAN_POINT('',(-1.69563423750481E-15,1.75554015768853E-15,13.001));
#367=CARTESIAN_POINT('',(3.05311331771918E-16,-1.77635683940025E-15,13.));
#368=CARTESIAN_POINT('',(-4.,-4.33680868994202E-16,13.));
#369=CARTESIAN_POINT('',(-4.56037165033822,-4.56037165033822,13.));
#370=CARTESIAN_POINT('',(1.66533453693773E-16,1.11022302462516E-16,13.5));
#371=CARTESIAN_POINT('',(-3.5,-4.33680868994201E-16,13.5));
#372=CARTESIAN_POINT('',(0.,-8.77770078844265E-16,13.5));
#373=CARTESIAN_POINT('',(1.66533453693773E-16,1.11022302462516E-16,16.8));
#374=CARTESIAN_POINT('',(-3.5,-4.33680868994201E-16,16.8));
#375=CARTESIAN_POINT('',(5.32956367710048E-16,-7.61543605953818E-16,17.1312));
#376=CARTESIAN_POINT('',(9.36361893874453E-16,-8.77770078844264E-16,17.001));
#377=CARTESIAN_POINT('',(3.11972669919669E-14,9.76996261670138E-15,-10.1999999999998));
#378=CARTESIAN_POINT('',(7.39026003131884,3.06334076940386,-10.1999999999998));
#379=CARTESIAN_POINT('',(3.01980662698043E-14,1.4210854715202E-14,-13.7));
#380=CARTESIAN_POINT('',(-7.39026003131866,-3.06334076940378,-13.7));
#381=CARTESIAN_POINT('',(6.33174068731535E-14,2.62376925741492E-14,-14.0512));
#382=CARTESIAN_POINT('',(2.92821322744885E-14,1.08801856413265E-14,-18.7));
#383=CARTESIAN_POINT('',(-2.77134751174441,-1.14875278852638,-18.7));
#384=CARTESIAN_POINT('',(5.98479599211998E-14,2.94902990916057E-14,-18.7));
#385=CARTESIAN_POINT('',(6.69514211854698,-2.77123069325511,-18.7));
#386=CARTESIAN_POINT('',(-10.4546008007226,-10.4546008007226,-10.1999999999998));
#387=MECHANICAL_DESIGN_GEOMETRIC_PRESENTATION_REPRESENTATION('',(#209,#210,
#211,#212,#213,#214,#215),#388);
#388=(
GEOMETRIC_REPRESENTATION_CONTEXT(3)
GLOBAL_UNCERTAINTY_ASSIGNED_CONTEXT((#389))
GLOBAL_UNIT_ASSIGNED_CONTEXT((#395,#391,#390))
REPRESENTATION_CONTEXT('XVK310E16160D1K500Z4_Basic',
'TOP_LEVEL_ASSEMBLY_PART')
);
#389=UNCERTAINTY_MEASURE_WITH_UNIT(LENGTH_MEASURE(2.E-5),#395,
'DISTANCE_ACCURACY_VALUE','Maximum Tolerance applied to model');
#390=(
NAMED_UNIT(*)
SI_UNIT($,.STERADIAN.)
SOLID_ANGLE_UNIT()
);
#391=(
CONVERSION_BASED_UNIT('DEGREE',#393)
NAMED_UNIT(#392)
PLANE_ANGLE_UNIT()
);
#392=DIMENSIONAL_EXPONENTS(0.,0.,0.,0.,0.,0.,0.);
#393=PLANE_ANGLE_MEASURE_WITH_UNIT(PLANE_ANGLE_MEASURE(0.0174532925),#394);
#394=(
NAMED_UNIT(*)
PLANE_ANGLE_UNIT()
SI_UNIT($,.RADIAN.)
);
#395=(
LENGTH_UNIT()
NAMED_UNIT(*)
SI_UNIT(.MILLI.,.METRE.)
);
ENDSEC;
END-ISO-10303-21;
