ISO-10303-21;
HEADER;
/* Generated by software containing ST-Developer
 * from STEP Tools, Inc. (www.steptools.com) 
 */
/* OPTION: using custom schema-name function */

FILE_DESCRIPTION(
/* description */ (''),
/* implementation_level */ '2;1');

FILE_NAME(
/* name */ 'XVK310E12120D1K400Z4_Basic.stp',
/* time_stamp */ '2022-07-20T14:35:06+05:00',
/* author */ (''),
/* organization */ (''),
/* preprocessor_version */ 'ST-DEVELOPER v16.7',
/* originating_system */ 'SIEMENS PLM Software NX 12.0',
/* authorisation */ '');

FILE_SCHEMA (('AUTOMOTIVE_DESIGN { 1 0 10303 214 3 1 1 1 }'));
ENDSEC;

DATA;
#10=CONSTRUCTIVE_GEOMETRY_REPRESENTATION_RELATIONSHIP(
'supplemental geometry','',#34,#11);
#11=CONSTRUCTIVE_GEOMETRY_REPRESENTATION('supplemental geometry',(#230,
#231,#232),#388);
#12=GEOMETRICALLY_BOUNDED_WIREFRAME_SHAPE_REPRESENTATION(
'inco1898A528aucr-None',(#35),#388);
#13=PROPERTY_DEFINITION_REPRESENTATION(#17,#15);
#14=PROPERTY_DEFINITION_REPRESENTATION(#18,#16);
#15=REPRESENTATION('',(#19),#388);
#16=REPRESENTATION('',(#20),#388);
#17=PROPERTY_DEFINITION('pmi validation property','',#25);
#18=PROPERTY_DEFINITION('pmi validation property','',#25);
#19=VALUE_REPRESENTATION_ITEM('number of annotations',COUNT_MEASURE(0.));
#20=VALUE_REPRESENTATION_ITEM('number of views',COUNT_MEASURE(0.));
#21=SHAPE_REPRESENTATION_RELATIONSHIP('None',
'relationship between inco1898A528aucr-None and inco1898A528aucr-None',
#34,#23);
#22=SHAPE_REPRESENTATION_RELATIONSHIP('None',
'relationship between inco1898A528aucr-None and inco1898A528aucr-None',
#34,#12);
#23=ADVANCED_BREP_SHAPE_REPRESENTATION('inco1898A528aucr-None',(#49,#50),
#388);
#24=SHAPE_DEFINITION_REPRESENTATION(#25,#34);
#25=PRODUCT_DEFINITION_SHAPE('','',#26);
#26=PRODUCT_DEFINITION(' ','',#28,#27);
#27=PRODUCT_DEFINITION_CONTEXT('part definition',#33,'design');
#28=PRODUCT_DEFINITION_FORMATION_WITH_SPECIFIED_SOURCE(' ',' ',#30,
 .NOT_KNOWN.);
#29=PRODUCT_RELATED_PRODUCT_CATEGORY('part','',(#30));
#30=PRODUCT('inco1898A528aucr','inco1898A528aucr',' ',(#31));
#31=PRODUCT_CONTEXT(' ',#33,'mechanical');
#32=APPLICATION_PROTOCOL_DEFINITION('international standard',
'automotive_design',2010,#33);
#33=APPLICATION_CONTEXT(
'core data for automotive mechanical design processes');
#34=SHAPE_REPRESENTATION('inco1898A528aucr-None',(#229),#388);
#35=GEOMETRIC_CURVE_SET('None',(#326,#206));
#36=CONICAL_SURFACE('',#242,2.549,44.9999999999996);
#37=CONICAL_SURFACE('',#250,3.75159366586827,6.00000000000002);
#38=CONICAL_SURFACE('',#252,4.51892127141798,2.20000000000007);
#39=SURFACE_STYLE_USAGE(.BOTH.,#41);
#40=SURFACE_STYLE_USAGE(.BOTH.,#42);
#41=SURFACE_SIDE_STYLE('',(#43));
#42=SURFACE_SIDE_STYLE('',(#44));
#43=SURFACE_STYLE_FILL_AREA(#45);
#44=SURFACE_STYLE_FILL_AREA(#46);
#45=FILL_AREA_STYLE('',(#47));
#46=FILL_AREA_STYLE('',(#48));
#47=FILL_AREA_STYLE_COLOUR('',#227);
#48=FILL_AREA_STYLE_COLOUR('',#228);
#49=MANIFOLD_SOLID_BREP('CUT',#51);
#50=MANIFOLD_SOLID_BREP('NOCUT',#52);
#51=CLOSED_SHELL('',(#81,#82,#83,#84));
#52=CLOSED_SHELL('',(#85,#86,#87,#88,#89,#90,#91,#92,#93,#94,#95));
#53=TOROIDAL_SURFACE('',#239,6.00000000000007,4.00000000000001);
#54=TOROIDAL_SURFACE('',#246,3.25,0.499999999999999);
#55=TOROIDAL_SURFACE('',#254,4.90369645068986,0.299999999999995);
#56=CYLINDRICAL_SURFACE('',#237,6.);
#57=CYLINDRICAL_SURFACE('',#244,2.75);
#58=CYLINDRICAL_SURFACE('',#258,5.85);
#59=FACE_BOUND('',#107,.T.);
#60=FACE_BOUND('',#108,.T.);
#61=FACE_BOUND('',#110,.T.);
#62=FACE_BOUND('',#111,.T.);
#63=FACE_BOUND('',#112,.T.);
#64=FACE_BOUND('',#113,.T.);
#65=FACE_BOUND('',#114,.T.);
#66=FACE_BOUND('',#115,.T.);
#67=FACE_BOUND('',#116,.T.);
#68=FACE_BOUND('',#117,.T.);
#69=FACE_BOUND('',#118,.T.);
#70=FACE_BOUND('',#119,.T.);
#71=FACE_BOUND('',#120,.T.);
#72=FACE_BOUND('',#121,.T.);
#73=FACE_BOUND('',#122,.T.);
#74=FACE_BOUND('',#123,.T.);
#75=FACE_BOUND('',#124,.T.);
#76=FACE_BOUND('',#125,.T.);
#77=FACE_BOUND('',#126,.T.);
#78=FACE_BOUND('',#127,.T.);
#79=FACE_BOUND('',#128,.T.);
#80=FACE_BOUND('',#129,.T.);
#81=ADVANCED_FACE('',(#102),#96,.T.);
#82=ADVANCED_FACE('',(#59,#60),#56,.T.);
#83=ADVANCED_FACE('',(#103),#97,.T.);
#84=ADVANCED_FACE('',(#61,#62),#53,.F.);
#85=ADVANCED_FACE('',(#63,#64),#36,.T.);
#86=ADVANCED_FACE('',(#65,#66),#57,.T.);
#87=ADVANCED_FACE('',(#67,#68),#54,.F.);
#88=ADVANCED_FACE('',(#69,#70),#98,.T.);
#89=ADVANCED_FACE('',(#71,#72),#37,.T.);
#90=ADVANCED_FACE('',(#73,#74),#38,.T.);
#91=ADVANCED_FACE('',(#75,#76),#55,.F.);
#92=ADVANCED_FACE('',(#77,#78),#99,.T.);
#93=ADVANCED_FACE('',(#79,#80),#58,.T.);
#94=ADVANCED_FACE('',(#104),#100,.T.);
#95=ADVANCED_FACE('',(#105),#101,.T.);
#96=PLANE('',#234);
#97=PLANE('',#238);
#98=PLANE('',#248);
#99=PLANE('',#256);
#100=PLANE('',#259);
#101=PLANE('',#260);
#102=FACE_OUTER_BOUND('',#106,.T.);
#103=FACE_OUTER_BOUND('',#109,.T.);
#104=FACE_OUTER_BOUND('',#130,.T.);
#105=FACE_OUTER_BOUND('',#131,.T.);
#106=EDGE_LOOP('',(#132));
#107=EDGE_LOOP('',(#133));
#108=EDGE_LOOP('',(#134));
#109=EDGE_LOOP('',(#135));
#110=EDGE_LOOP('',(#136));
#111=EDGE_LOOP('',(#137));
#112=EDGE_LOOP('',(#138));
#113=EDGE_LOOP('',(#139));
#114=EDGE_LOOP('',(#140));
#115=EDGE_LOOP('',(#141));
#116=EDGE_LOOP('',(#142));
#117=EDGE_LOOP('',(#143));
#118=EDGE_LOOP('',(#144));
#119=EDGE_LOOP('',(#145));
#120=EDGE_LOOP('',(#146));
#121=EDGE_LOOP('',(#147));
#122=EDGE_LOOP('',(#148));
#123=EDGE_LOOP('',(#149));
#124=EDGE_LOOP('',(#150));
#125=EDGE_LOOP('',(#151));
#126=EDGE_LOOP('',(#152));
#127=EDGE_LOOP('',(#153));
#128=EDGE_LOOP('',(#154));
#129=EDGE_LOOP('',(#155));
#130=EDGE_LOOP('',(#156));
#131=EDGE_LOOP('',(#157));
#132=ORIENTED_EDGE('',*,*,#171,.F.);
#133=ORIENTED_EDGE('',*,*,#172,.T.);
#134=ORIENTED_EDGE('',*,*,#173,.T.);
#135=ORIENTED_EDGE('',*,*,#173,.F.);
#136=ORIENTED_EDGE('',*,*,#171,.T.);
#137=ORIENTED_EDGE('',*,*,#172,.F.);
#138=ORIENTED_EDGE('',*,*,#174,.T.);
#139=ORIENTED_EDGE('',*,*,#175,.F.);
#140=ORIENTED_EDGE('',*,*,#175,.T.);
#141=ORIENTED_EDGE('',*,*,#176,.F.);
#142=ORIENTED_EDGE('',*,*,#176,.T.);
#143=ORIENTED_EDGE('',*,*,#177,.F.);
#144=ORIENTED_EDGE('',*,*,#177,.T.);
#145=ORIENTED_EDGE('',*,*,#178,.F.);
#146=ORIENTED_EDGE('',*,*,#178,.T.);
#147=ORIENTED_EDGE('',*,*,#179,.F.);
#148=ORIENTED_EDGE('',*,*,#180,.F.);
#149=ORIENTED_EDGE('',*,*,#179,.T.);
#150=ORIENTED_EDGE('',*,*,#181,.F.);
#151=ORIENTED_EDGE('',*,*,#180,.T.);
#152=ORIENTED_EDGE('',*,*,#181,.T.);
#153=ORIENTED_EDGE('',*,*,#182,.F.);
#154=ORIENTED_EDGE('',*,*,#182,.T.);
#155=ORIENTED_EDGE('',*,*,#183,.F.);
#156=ORIENTED_EDGE('',*,*,#183,.T.);
#157=ORIENTED_EDGE('',*,*,#174,.F.);
#158=VERTEX_POINT('',#347);
#159=VERTEX_POINT('',#350);
#160=VERTEX_POINT('',#352);
#161=VERTEX_POINT('',#357);
#162=VERTEX_POINT('',#359);
#163=VERTEX_POINT('',#362);
#164=VERTEX_POINT('',#365);
#165=VERTEX_POINT('',#368);
#166=VERTEX_POINT('',#371);
#167=VERTEX_POINT('',#374);
#168=VERTEX_POINT('',#377);
#169=VERTEX_POINT('',#380);
#170=VERTEX_POINT('',#383);
#171=EDGE_CURVE('',#158,#158,#184,.T.);
#172=EDGE_CURVE('',#159,#159,#185,.T.);
#173=EDGE_CURVE('',#160,#160,#186,.T.);
#174=EDGE_CURVE('',#161,#161,#187,.T.);
#175=EDGE_CURVE('',#162,#162,#188,.T.);
#176=EDGE_CURVE('',#163,#163,#189,.T.);
#177=EDGE_CURVE('',#164,#164,#190,.T.);
#178=EDGE_CURVE('',#165,#165,#191,.T.);
#179=EDGE_CURVE('',#166,#166,#192,.T.);
#180=EDGE_CURVE('',#167,#167,#193,.T.);
#181=EDGE_CURVE('',#168,#168,#194,.T.);
#182=EDGE_CURVE('',#169,#169,#195,.T.);
#183=EDGE_CURVE('',#170,#170,#196,.T.);
#184=CIRCLE('',#233,2.00000000000008);
#185=CIRCLE('',#235,6.00000000000008);
#186=CIRCLE('',#236,6.);
#187=CIRCLE('',#240,2.55);
#188=CIRCLE('',#241,2.75);
#189=CIRCLE('',#243,2.75);
#190=CIRCLE('',#245,3.25);
#191=CIRCLE('',#247,3.75169877010353);
#192=CIRCLE('',#249,4.51895968754297);
#193=CIRCLE('',#251,4.60391757576667);
#194=CIRCLE('',#253,4.90369645068986);
#195=CIRCLE('',#255,5.85);
#196=CIRCLE('',#257,5.85);
#197=CURVE_STYLE('',#202,POSITIVE_LENGTH_MEASURE(0.18),#201);
#198=CURVE_STYLE('',#203,POSITIVE_LENGTH_MEASURE(0.18),#226);
#199=CURVE_STYLE('',#204,POSITIVE_LENGTH_MEASURE(0.18),#226);
#200=CURVE_STYLE('',#205,POSITIVE_LENGTH_MEASURE(0.18),#226);
#201=DRAUGHTING_PRE_DEFINED_COLOUR('blue');
#202=DRAUGHTING_PRE_DEFINED_CURVE_FONT('continuous');
#203=DRAUGHTING_PRE_DEFINED_CURVE_FONT('continuous');
#204=DRAUGHTING_PRE_DEFINED_CURVE_FONT('continuous');
#205=DRAUGHTING_PRE_DEFINED_CURVE_FONT('continuous');
#206=TRIMMED_CURVE('CUTTING PART LINE',#207,(PARAMETER_VALUE(0.)),(
PARAMETER_VALUE(1.)),.T.,.PARAMETER.);
#207=(
BOUNDED_CURVE()
B_SPLINE_CURVE(3,(#327,#328,#329,#330,#331,#332,#333,#334,#335,#336,#337,
#338,#339,#340,#341,#342),.UNSPECIFIED.,.T.,.F.)
B_SPLINE_CURVE_WITH_KNOTS((4,3,3,3,3,4),(0.,0.110341884732564,0.375162408090717,
0.662051308395384,0.750324816181438,1.),.UNSPECIFIED.)
CURVE()
GEOMETRIC_REPRESENTATION_ITEM()
RATIONAL_B_SPLINE_CURVE((1.,1.,1.,1.,1.,1.,1.,1.,1.,1.,1.,1.,1.,0.804737854124365,
0.804737854124365,1.))
REPRESENTATION_ITEM('CUTTING PART LINE')
);
#208=PRESENTATION_LAYER_ASSIGNMENT('1','Layer 1',(#326,#206,#230,#231,#232,
#49,#50));
#209=STYLED_ITEM('',(#216),#326);
#210=STYLED_ITEM('',(#217),#206);
#211=STYLED_ITEM('',(#218),#230);
#212=STYLED_ITEM('',(#219),#231);
#213=STYLED_ITEM('',(#220),#232);
#214=STYLED_ITEM('',(#221),#49);
#215=STYLED_ITEM('',(#222),#50);
#216=PRESENTATION_STYLE_ASSIGNMENT((#223));
#217=PRESENTATION_STYLE_ASSIGNMENT((#197));
#218=PRESENTATION_STYLE_ASSIGNMENT((#198));
#219=PRESENTATION_STYLE_ASSIGNMENT((#199));
#220=PRESENTATION_STYLE_ASSIGNMENT((#200));
#221=PRESENTATION_STYLE_ASSIGNMENT((#39));
#222=PRESENTATION_STYLE_ASSIGNMENT((#40));
#223=POINT_STYLE('',#224,POSITIVE_LENGTH_MEASURE(3.),#225);
#224=PRE_DEFINED_POINT_MARKER_SYMBOL('plus');
#225=COLOUR_RGB('Medium Royal',0.2,0.4,0.8);
#226=COLOUR_RGB('Strong Stone',0.576470588235294,0.54508278019379,0.392156862745098);
#227=COLOUR_RGB('Light Gray',0.8,0.8,0.8);
#228=COLOUR_RGB('Medium Gray',0.490196078431373,0.490196078431373,0.490196078431373);
#229=AXIS2_PLACEMENT_3D('',#325,#261,#262);
#230=AXIS2_PLACEMENT_3D('MCS',#343,#263,#264);
#231=AXIS2_PLACEMENT_3D('PCS',#344,#265,#266);
#232=AXIS2_PLACEMENT_3D('CIP',#345,#267,#268);
#233=AXIS2_PLACEMENT_3D('',#346,#269,#270);
#234=AXIS2_PLACEMENT_3D('',#348,#271,#272);
#235=AXIS2_PLACEMENT_3D('',#349,#273,#274);
#236=AXIS2_PLACEMENT_3D('',#351,#275,#276);
#237=AXIS2_PLACEMENT_3D('',#353,#277,#278);
#238=AXIS2_PLACEMENT_3D('',#354,#279,#280);
#239=AXIS2_PLACEMENT_3D('',#355,#281,#282);
#240=AXIS2_PLACEMENT_3D('',#356,#283,#284);
#241=AXIS2_PLACEMENT_3D('',#358,#285,#286);
#242=AXIS2_PLACEMENT_3D('',#360,#287,#288);
#243=AXIS2_PLACEMENT_3D('',#361,#289,#290);
#244=AXIS2_PLACEMENT_3D('',#363,#291,#292);
#245=AXIS2_PLACEMENT_3D('',#364,#293,#294);
#246=AXIS2_PLACEMENT_3D('',#366,#295,#296);
#247=AXIS2_PLACEMENT_3D('',#367,#297,#298);
#248=AXIS2_PLACEMENT_3D('',#369,#299,#300);
#249=AXIS2_PLACEMENT_3D('',#370,#301,#302);
#250=AXIS2_PLACEMENT_3D('',#372,#303,#304);
#251=AXIS2_PLACEMENT_3D('',#373,#305,#306);
#252=AXIS2_PLACEMENT_3D('',#375,#307,#308);
#253=AXIS2_PLACEMENT_3D('',#376,#309,#310);
#254=AXIS2_PLACEMENT_3D('',#378,#311,#312);
#255=AXIS2_PLACEMENT_3D('',#379,#313,#314);
#256=AXIS2_PLACEMENT_3D('',#381,#315,#316);
#257=AXIS2_PLACEMENT_3D('',#382,#317,#318);
#258=AXIS2_PLACEMENT_3D('',#384,#319,#320);
#259=AXIS2_PLACEMENT_3D('',#385,#321,#322);
#260=AXIS2_PLACEMENT_3D('',#386,#323,#324);
#261=DIRECTION('',(0.,0.,1.));
#262=DIRECTION('',(1.,0.,0.));
#263=DIRECTION('',(0.,0.,1.));
#264=DIRECTION('',(1.,0.,0.));
#265=DIRECTION('',(0.,0.,1.));
#266=DIRECTION('',(1.,0.,0.));
#267=DIRECTION('',(0.,0.,1.));
#268=DIRECTION('',(1.,0.,0.));
#269=DIRECTION('',(0.,0.,1.));
#270=DIRECTION('',(0.923782503914851,0.382917596175481,0.));
#271=DIRECTION('',(0.,0.,-1.));
#272=DIRECTION('',(-0.923782503914851,-0.382917596175481,0.));
#273=DIRECTION('',(0.,0.,1.));
#274=DIRECTION('',(0.923782503914851,0.382917596175481,0.));
#275=DIRECTION('',(0.,0.,-1.));
#276=DIRECTION('',(0.923782503914851,0.382917596175481,0.));
#277=DIRECTION('',(0.,0.,1.));
#278=DIRECTION('',(1.,0.,0.));
#279=DIRECTION('',(0.,0.,1.));
#280=DIRECTION('',(1.,0.,0.));
#281=DIRECTION('',(2.26676333968791E-16,-9.38251052787505E-17,-1.));
#282=DIRECTION('',(-1.,0.,-1.73472347597679E-16));
#283=DIRECTION('',(0.,0.,-1.));
#284=DIRECTION('',(-1.,1.1292709686751E-16,0.));
#285=DIRECTION('',(-6.45947941600091E-16,2.10147314327327E-15,-1.));
#286=DIRECTION('',(-1.,1.85457709795339E-16,6.30808536718839E-16));
#287=DIRECTION('',(-6.80550598657045E-16,0.,-1.));
#288=DIRECTION('',(-1.,0.,6.15991395380925E-16));
#289=DIRECTION('',(0.,0.,-1.));
#290=DIRECTION('',(-1.,2.05643582970341E-16,0.));
#291=DIRECTION('',(0.,0.,-1.));
#292=DIRECTION('',(-1.,0.,0.));
#293=DIRECTION('',(0.,0.,-1.));
#294=DIRECTION('',(-1.,-8.21992047078242E-17,0.));
#295=DIRECTION('',(0.,0.,1.));
#296=DIRECTION('',(1.,0.,0.));
#297=DIRECTION('',(0.,0.,-1.));
#298=DIRECTION('',(-1.,-5.6410782698135E-17,0.));
#299=DIRECTION('',(0.,0.,1.));
#300=DIRECTION('',(1.,0.,0.));
#301=DIRECTION('',(-8.98777403949076E-33,-3.34473963534191E-16,-1.));
#302=DIRECTION('',(-1.,2.68713712257964E-17,0.));
#303=DIRECTION('',(0.,0.,-1.));
#304=DIRECTION('',(-1.,0.,-4.78079169394145E-16));
#305=DIRECTION('',(0.,0.,-1.));
#306=DIRECTION('',(-1.,-5.04148906373601E-16,0.));
#307=DIRECTION('',(0.,0.,-1.));
#308=DIRECTION('',(-1.,0.,3.83832660251425E-16));
#309=DIRECTION('',(0.,0.,-1.));
#310=DIRECTION('',(-1.,-2.92204382054534E-16,0.));
#311=DIRECTION('',(-1.04176154658461E-17,-2.08352309316922E-17,1.));
#312=DIRECTION('',(0.,-1.,-2.08352309316923E-17));
#313=DIRECTION('',(0.,0.,-1.));
#314=DIRECTION('',(-1.,-1.71989677960094E-17,0.));
#315=DIRECTION('',(0.,0.,1.));
#316=DIRECTION('',(1.,0.,0.));
#317=DIRECTION('',(0.,0.,-1.));
#318=DIRECTION('',(-1.,-1.71989677960094E-17,0.));
#319=DIRECTION('',(0.,0.,-1.));
#320=DIRECTION('',(-1.,0.,0.));
#321=DIRECTION('',(0.,0.,-1.));
#322=DIRECTION('',(-1.,0.,0.));
#323=DIRECTION('',(0.,0.,1.));
#324=DIRECTION('',(1.,0.,0.));
#325=CARTESIAN_POINT('',(0.,0.,0.));
#326=CARTESIAN_POINT('CRP',(-2.,0.,-14.5));
#327=CARTESIAN_POINT('',(-5.99999999999997,0.,-10.5));
#328=CARTESIAN_POINT('',(-5.99999999999997,0.,-9.66666666666667));
#329=CARTESIAN_POINT('',(-5.99999999999997,0.,-8.83333333333333));
#330=CARTESIAN_POINT('',(-5.99999999999997,0.,-8.));
#331=CARTESIAN_POINT('',(-3.99999999999998,0.,-8.));
#332=CARTESIAN_POINT('',(-1.99999999999999,0.,-8.));
#333=CARTESIAN_POINT('',(0.,0.,-8.));
#334=CARTESIAN_POINT('',(0.,0.,-10.1666666666667));
#335=CARTESIAN_POINT('',(0.,0.,-12.3333333333333));
#336=CARTESIAN_POINT('',(0.,0.,-14.5));
#337=CARTESIAN_POINT('',(-0.666666666666682,0.,-14.5));
#338=CARTESIAN_POINT('',(-1.33333333333336,0.,-14.5));
#339=CARTESIAN_POINT('',(-2.00000000000004,0.,-14.5));
#340=CARTESIAN_POINT('',(-2.00000000000001,-1.17093834628434E-14,-12.1568542494924));
#341=CARTESIAN_POINT('',(-3.65685424949239,-1.17093834628435E-14,-10.5));
#342=CARTESIAN_POINT('',(-6.00000000000002,-1.17093834628434E-14,-10.5));
#343=CARTESIAN_POINT('',(0.,0.,0.));
#344=CARTESIAN_POINT('',(0.,0.,0.));
#345=CARTESIAN_POINT('',(0.,0.,-14.5));
#346=CARTESIAN_POINT('',(3.57908147563535E-14,1.56541446472147E-14,-14.5));
#347=CARTESIAN_POINT('',(1.84756500782981,0.765835192351008,-14.5));
#348=CARTESIAN_POINT('',(4.46399723408223,-1.84772271157991,-14.5));
#349=CARTESIAN_POINT('',(3.75810493835615E-14,1.49880108324396E-14,-10.5));
#350=CARTESIAN_POINT('',(5.54269502348922,2.29750557705293,-10.5));
#351=CARTESIAN_POINT('',(3.68594044175552E-14,1.62092561595273E-14,-8.));
#352=CARTESIAN_POINT('',(5.54269502348914,2.2975055770529,-8.));
#353=CARTESIAN_POINT('',(3.31765864780564E-14,1.49619899803E-14,-10.7512));
#354=CARTESIAN_POINT('',(-7.84120060054195,-7.84120060054197,-8.));
#355=CARTESIAN_POINT('',(5.63785129692462E-14,-1.17093834628434E-14,-14.5));
#356=CARTESIAN_POINT('',(-1.48492329543615E-15,-7.21644966006352E-16,13.8));
#357=CARTESIAN_POINT('',(-2.55,-4.33680868994202E-16,13.8));
#358=CARTESIAN_POINT('',(-6.86950496486816E-16,-9.43689570931383E-16,13.6));
#359=CARTESIAN_POINT('',(-2.75,-4.33680868994201E-16,13.6));
#360=CARTESIAN_POINT('',(-1.62714868132295E-15,-4.38885039422132E-16,13.801));
#361=CARTESIAN_POINT('',(-6.80011602582908E-16,-9.99200722162641E-16,10.3));
#362=CARTESIAN_POINT('',(-2.75,-4.33680868994203E-16,10.3));
#363=CARTESIAN_POINT('',(-1.76861096261486E-15,-3.27862736959617E-16,13.9312));
#364=CARTESIAN_POINT('',(-8.74300631892311E-16,-1.66533453693773E-16,9.8));
#365=CARTESIAN_POINT('',(-3.25,-4.33680868994202E-16,9.8));
#366=CARTESIAN_POINT('',(1.30104260698261E-15,-8.77770078844264E-16,10.3));
#367=CARTESIAN_POINT('',(-1.74860126378462E-15,-2.22044604925031E-16,9.8));
#368=CARTESIAN_POINT('',(-3.75169877010353,-4.33680868994202E-16,9.8));
#369=CARTESIAN_POINT('',(-3.75269877010353,-3.75269877010353,9.8));
#370=CARTESIAN_POINT('',(-1.63757896132211E-15,-5.55111512312578E-16,2.50000000000007));
#371=CARTESIAN_POINT('',(-4.51895968754297,-4.33680868994202E-16,2.50000000000007));
#372=CARTESIAN_POINT('',(1.74476413688196E-15,-3.83373888190874E-15,9.801));
#373=CARTESIAN_POINT('',(-8.32667268468867E-16,1.88737914186277E-15,0.288483657273745));
#374=CARTESIAN_POINT('',(-4.60391757576667,-4.33680868994197E-16,0.288483657273745));
#375=CARTESIAN_POINT('',(-3.55402258596436E-15,1.75554015768853E-15,2.50100000000007));
#376=CARTESIAN_POINT('',(-2.09554595897998E-15,9.99200722162641E-16,3.25260651745652E-16));
#377=CARTESIAN_POINT('',(-4.90369645068986,-4.33680868994201E-16,3.25260651745652E-16));
#378=CARTESIAN_POINT('',(-6.07153216591882E-15,-6.08194050677468E-15,0.3));
#379=CARTESIAN_POINT('',(-2.13717932240343E-15,-3.33066907387547E-16,0.));
#380=CARTESIAN_POINT('',(-5.85,-4.33680868994202E-16,0.));
#381=CARTESIAN_POINT('',(-5.851,-5.851,1.62630325872826E-16));
#382=CARTESIAN_POINT('',(-2.13717932240343E-15,-3.33066907387547E-16,-8.));
#383=CARTESIAN_POINT('',(-5.85,-4.33680868994202E-16,-8.));
#384=CARTESIAN_POINT('',(-2.54353269213169E-15,0.,0.8012));
#385=CARTESIAN_POINT('',(5.851,-5.851,-8.));
#386=CARTESIAN_POINT('',(-2.551,-2.551,13.8));
#387=MECHANICAL_DESIGN_GEOMETRIC_PRESENTATION_REPRESENTATION('',(#209,#210,
#211,#212,#213,#214,#215),#388);
#388=(
GEOMETRIC_REPRESENTATION_CONTEXT(3)
GLOBAL_UNCERTAINTY_ASSIGNED_CONTEXT((#389))
GLOBAL_UNIT_ASSIGNED_CONTEXT((#395,#391,#390))
REPRESENTATION_CONTEXT('XVK310E12120D1K400Z4_Basic',
'TOP_LEVEL_ASSEMBLY_PART')
);
#389=UNCERTAINTY_MEASURE_WITH_UNIT(LENGTH_MEASURE(2.E-5),#395,
'DISTANCE_ACCURACY_VALUE','Maximum Tolerance applied to model');
#390=(
NAMED_UNIT(*)
SI_UNIT($,.STERADIAN.)
SOLID_ANGLE_UNIT()
);
#391=(
CONVERSION_BASED_UNIT('DEGREE',#393)
NAMED_UNIT(#392)
PLANE_ANGLE_UNIT()
);
#392=DIMENSIONAL_EXPONENTS(0.,0.,0.,0.,0.,0.,0.);
#393=PLANE_ANGLE_MEASURE_WITH_UNIT(PLANE_ANGLE_MEASURE(0.0174532925),#394);
#394=(
NAMED_UNIT(*)
PLANE_ANGLE_UNIT()
SI_UNIT($,.RADIAN.)
);
#395=(
LENGTH_UNIT()
NAMED_UNIT(*)
SI_UNIT(.MILLI.,.METRE.)
);
ENDSEC;
END-ISO-10303-21;
