ISO-10303-21;
HEADER;
/* Generated by software containing ST-Developer
 * from STEP Tools, Inc. (www.steptools.com) 
 */
/* OPTION: using custom schema-name function */

FILE_DESCRIPTION(
/* description */ (''),
/* implementation_level */ '2;1');

FILE_NAME(
/* name */ 'XVK310E12120D1K300Z4_Basic.stp',
/* time_stamp */ '2022-07-20T14:38:39+05:00',
/* author */ (''),
/* organization */ (''),
/* preprocessor_version */ 'ST-DEVELOPER v16.7',
/* originating_system */ 'SIEMENS PLM Software NX 12.0',
/* authorisation */ '');

FILE_SCHEMA (('AUTOMOTIVE_DESIGN { 1 0 10303 214 3 1 1 1 }'));
ENDSEC;

DATA;
#10=CONSTRUCTIVE_GEOMETRY_REPRESENTATION_RELATIONSHIP(
'supplemental geometry','',#34,#11);
#11=CONSTRUCTIVE_GEOMETRY_REPRESENTATION('supplemental geometry',(#241,
#242,#243),#411);
#12=GEOMETRICALLY_BOUNDED_WIREFRAME_SHAPE_REPRESENTATION(
'inco1898A528audj-None',(#35),#411);
#13=PROPERTY_DEFINITION_REPRESENTATION(#17,#15);
#14=PROPERTY_DEFINITION_REPRESENTATION(#18,#16);
#15=REPRESENTATION('',(#19),#411);
#16=REPRESENTATION('',(#20),#411);
#17=PROPERTY_DEFINITION('pmi validation property','',#25);
#18=PROPERTY_DEFINITION('pmi validation property','',#25);
#19=VALUE_REPRESENTATION_ITEM('number of annotations',COUNT_MEASURE(0.));
#20=VALUE_REPRESENTATION_ITEM('number of views',COUNT_MEASURE(0.));
#21=SHAPE_REPRESENTATION_RELATIONSHIP('None',
'relationship between inco1898A528audj-None and inco1898A528audj-None',
#34,#23);
#22=SHAPE_REPRESENTATION_RELATIONSHIP('None',
'relationship between inco1898A528audj-None and inco1898A528audj-None',
#34,#12);
#23=ADVANCED_BREP_SHAPE_REPRESENTATION('inco1898A528audj-None',(#46,#47),
#411);
#24=SHAPE_DEFINITION_REPRESENTATION(#25,#34);
#25=PRODUCT_DEFINITION_SHAPE('','',#26);
#26=PRODUCT_DEFINITION(' ','',#28,#27);
#27=PRODUCT_DEFINITION_CONTEXT('part definition',#33,'design');
#28=PRODUCT_DEFINITION_FORMATION_WITH_SPECIFIED_SOURCE(' ',' ',#30,
 .NOT_KNOWN.);
#29=PRODUCT_RELATED_PRODUCT_CATEGORY('part','',(#30));
#30=PRODUCT('inco1898A528audj','inco1898A528audj',' ',(#31));
#31=PRODUCT_CONTEXT(' ',#33,'mechanical');
#32=APPLICATION_PROTOCOL_DEFINITION('international standard',
'automotive_design',2010,#33);
#33=APPLICATION_CONTEXT(
'core data for automotive mechanical design processes');
#34=SHAPE_REPRESENTATION('inco1898A528audj-None',(#240),#411);
#35=GEOMETRIC_CURVE_SET('None',(#343,#217));
#36=SURFACE_STYLE_USAGE(.BOTH.,#38);
#37=SURFACE_STYLE_USAGE(.BOTH.,#39);
#38=SURFACE_SIDE_STYLE('',(#40));
#39=SURFACE_SIDE_STYLE('',(#41));
#40=SURFACE_STYLE_FILL_AREA(#42);
#41=SURFACE_STYLE_FILL_AREA(#43);
#42=FILL_AREA_STYLE('',(#44));
#43=FILL_AREA_STYLE('',(#45));
#44=FILL_AREA_STYLE_COLOUR('',#238);
#45=FILL_AREA_STYLE_COLOUR('',#239);
#46=MANIFOLD_SOLID_BREP('NOCUT',#48);
#47=MANIFOLD_SOLID_BREP('CUT',#49);
#48=CLOSED_SHELL('',(#83,#84,#85,#86,#87,#88,#89,#90,#91,#92,#93));
#49=CLOSED_SHELL('',(#94,#95,#96,#97,#98));
#50=CONICAL_SURFACE('',#255,4.51892127141798,2.20000000000007);
#51=CONICAL_SURFACE('',#257,3.75159366586827,6.00000000000002);
#52=CONICAL_SURFACE('',#264,2.549,44.9999999999996);
#53=TOROIDAL_SURFACE('',#253,4.90369645068986,0.299999999999995);
#54=TOROIDAL_SURFACE('',#261,3.25,0.499999999999999);
#55=TOROIDAL_SURFACE('',#271,5.50000000000006,3.);
#56=CYLINDRICAL_SURFACE('',#249,5.85);
#57=CYLINDRICAL_SURFACE('',#263,2.75);
#58=CYLINDRICAL_SURFACE('',#267,6.);
#59=FACE_BOUND('',#112,.T.);
#60=FACE_BOUND('',#113,.T.);
#61=FACE_BOUND('',#114,.T.);
#62=FACE_BOUND('',#115,.T.);
#63=FACE_BOUND('',#116,.T.);
#64=FACE_BOUND('',#117,.T.);
#65=FACE_BOUND('',#118,.T.);
#66=FACE_BOUND('',#119,.T.);
#67=FACE_BOUND('',#120,.T.);
#68=FACE_BOUND('',#121,.T.);
#69=FACE_BOUND('',#122,.T.);
#70=FACE_BOUND('',#123,.T.);
#71=FACE_BOUND('',#124,.T.);
#72=FACE_BOUND('',#125,.T.);
#73=FACE_BOUND('',#126,.T.);
#74=FACE_BOUND('',#127,.T.);
#75=FACE_BOUND('',#128,.T.);
#76=FACE_BOUND('',#129,.T.);
#77=FACE_BOUND('',#130,.T.);
#78=FACE_BOUND('',#131,.T.);
#79=FACE_BOUND('',#132,.T.);
#80=FACE_BOUND('',#133,.T.);
#81=FACE_BOUND('',#134,.T.);
#82=FACE_BOUND('',#135,.T.);
#83=ADVANCED_FACE('',(#106),#99,.T.);
#84=ADVANCED_FACE('',(#107),#100,.T.);
#85=ADVANCED_FACE('',(#59,#60),#56,.T.);
#86=ADVANCED_FACE('',(#61,#62),#101,.T.);
#87=ADVANCED_FACE('',(#63,#64),#53,.F.);
#88=ADVANCED_FACE('',(#65,#66),#50,.T.);
#89=ADVANCED_FACE('',(#67,#68),#51,.T.);
#90=ADVANCED_FACE('',(#69,#70),#102,.T.);
#91=ADVANCED_FACE('',(#71,#72),#54,.F.);
#92=ADVANCED_FACE('',(#73,#74),#57,.T.);
#93=ADVANCED_FACE('',(#75,#76),#52,.T.);
#94=ADVANCED_FACE('',(#77,#78),#58,.T.);
#95=ADVANCED_FACE('',(#79,#80),#103,.T.);
#96=ADVANCED_FACE('',(#81,#82),#55,.F.);
#97=ADVANCED_FACE('',(#108),#104,.T.);
#98=ADVANCED_FACE('',(#109),#105,.T.);
#99=PLANE('',#245);
#100=PLANE('',#247);
#101=PLANE('',#251);
#102=PLANE('',#259);
#103=PLANE('',#269);
#104=PLANE('',#272);
#105=PLANE('',#273);
#106=FACE_OUTER_BOUND('',#110,.T.);
#107=FACE_OUTER_BOUND('',#111,.T.);
#108=FACE_OUTER_BOUND('',#136,.T.);
#109=FACE_OUTER_BOUND('',#137,.T.);
#110=EDGE_LOOP('',(#138));
#111=EDGE_LOOP('',(#139));
#112=EDGE_LOOP('',(#140));
#113=EDGE_LOOP('',(#141));
#114=EDGE_LOOP('',(#142));
#115=EDGE_LOOP('',(#143));
#116=EDGE_LOOP('',(#144));
#117=EDGE_LOOP('',(#145));
#118=EDGE_LOOP('',(#146));
#119=EDGE_LOOP('',(#147));
#120=EDGE_LOOP('',(#148));
#121=EDGE_LOOP('',(#149));
#122=EDGE_LOOP('',(#150));
#123=EDGE_LOOP('',(#151));
#124=EDGE_LOOP('',(#152));
#125=EDGE_LOOP('',(#153));
#126=EDGE_LOOP('',(#154));
#127=EDGE_LOOP('',(#155));
#128=EDGE_LOOP('',(#156));
#129=EDGE_LOOP('',(#157));
#130=EDGE_LOOP('',(#158));
#131=EDGE_LOOP('',(#159));
#132=EDGE_LOOP('',(#160));
#133=EDGE_LOOP('',(#161));
#134=EDGE_LOOP('',(#162));
#135=EDGE_LOOP('',(#163));
#136=EDGE_LOOP('',(#164));
#137=EDGE_LOOP('',(#165));
#138=ORIENTED_EDGE('',*,*,#180,.F.);
#139=ORIENTED_EDGE('',*,*,#181,.T.);
#140=ORIENTED_EDGE('',*,*,#182,.T.);
#141=ORIENTED_EDGE('',*,*,#181,.F.);
#142=ORIENTED_EDGE('',*,*,#182,.F.);
#143=ORIENTED_EDGE('',*,*,#183,.T.);
#144=ORIENTED_EDGE('',*,*,#183,.F.);
#145=ORIENTED_EDGE('',*,*,#184,.T.);
#146=ORIENTED_EDGE('',*,*,#185,.T.);
#147=ORIENTED_EDGE('',*,*,#184,.F.);
#148=ORIENTED_EDGE('',*,*,#186,.T.);
#149=ORIENTED_EDGE('',*,*,#185,.F.);
#150=ORIENTED_EDGE('',*,*,#186,.F.);
#151=ORIENTED_EDGE('',*,*,#187,.T.);
#152=ORIENTED_EDGE('',*,*,#187,.F.);
#153=ORIENTED_EDGE('',*,*,#188,.T.);
#154=ORIENTED_EDGE('',*,*,#189,.T.);
#155=ORIENTED_EDGE('',*,*,#188,.F.);
#156=ORIENTED_EDGE('',*,*,#189,.F.);
#157=ORIENTED_EDGE('',*,*,#180,.T.);
#158=ORIENTED_EDGE('',*,*,#190,.F.);
#159=ORIENTED_EDGE('',*,*,#191,.T.);
#160=ORIENTED_EDGE('',*,*,#192,.T.);
#161=ORIENTED_EDGE('',*,*,#190,.T.);
#162=ORIENTED_EDGE('',*,*,#193,.T.);
#163=ORIENTED_EDGE('',*,*,#192,.F.);
#164=ORIENTED_EDGE('',*,*,#193,.F.);
#165=ORIENTED_EDGE('',*,*,#191,.F.);
#166=VERTEX_POINT('',#367);
#167=VERTEX_POINT('',#370);
#168=VERTEX_POINT('',#373);
#169=VERTEX_POINT('',#376);
#170=VERTEX_POINT('',#379);
#171=VERTEX_POINT('',#382);
#172=VERTEX_POINT('',#385);
#173=VERTEX_POINT('',#388);
#174=VERTEX_POINT('',#391);
#175=VERTEX_POINT('',#394);
#176=VERTEX_POINT('',#398);
#177=VERTEX_POINT('',#400);
#178=VERTEX_POINT('',#403);
#179=VERTEX_POINT('',#406);
#180=EDGE_CURVE('',#166,#166,#194,.T.);
#181=EDGE_CURVE('',#167,#167,#195,.T.);
#182=EDGE_CURVE('',#168,#168,#196,.T.);
#183=EDGE_CURVE('',#169,#169,#197,.T.);
#184=EDGE_CURVE('',#170,#170,#198,.T.);
#185=EDGE_CURVE('',#171,#171,#199,.T.);
#186=EDGE_CURVE('',#172,#172,#200,.T.);
#187=EDGE_CURVE('',#173,#173,#201,.T.);
#188=EDGE_CURVE('',#174,#174,#202,.T.);
#189=EDGE_CURVE('',#175,#175,#203,.T.);
#190=EDGE_CURVE('',#176,#176,#204,.T.);
#191=EDGE_CURVE('',#177,#177,#205,.T.);
#192=EDGE_CURVE('',#178,#178,#206,.T.);
#193=EDGE_CURVE('',#179,#179,#207,.T.);
#194=CIRCLE('',#244,2.55);
#195=CIRCLE('',#246,5.85);
#196=CIRCLE('',#248,5.85);
#197=CIRCLE('',#250,4.90369645068986);
#198=CIRCLE('',#252,4.60391757576667);
#199=CIRCLE('',#254,4.51895968754297);
#200=CIRCLE('',#256,3.75169877010353);
#201=CIRCLE('',#258,3.25);
#202=CIRCLE('',#260,2.75);
#203=CIRCLE('',#262,2.75);
#204=CIRCLE('',#265,6.);
#205=CIRCLE('',#266,6.);
#206=CIRCLE('',#268,5.50000000000008);
#207=CIRCLE('',#270,2.50000000000008);
#208=CURVE_STYLE('',#213,POSITIVE_LENGTH_MEASURE(0.18),#212);
#209=CURVE_STYLE('',#214,POSITIVE_LENGTH_MEASURE(0.18),#237);
#210=CURVE_STYLE('',#215,POSITIVE_LENGTH_MEASURE(0.18),#237);
#211=CURVE_STYLE('',#216,POSITIVE_LENGTH_MEASURE(0.18),#237);
#212=DRAUGHTING_PRE_DEFINED_COLOUR('blue');
#213=DRAUGHTING_PRE_DEFINED_CURVE_FONT('continuous');
#214=DRAUGHTING_PRE_DEFINED_CURVE_FONT('continuous');
#215=DRAUGHTING_PRE_DEFINED_CURVE_FONT('continuous');
#216=DRAUGHTING_PRE_DEFINED_CURVE_FONT('continuous');
#217=TRIMMED_CURVE('CUTTING PART LINE',#218,(PARAMETER_VALUE(0.)),(
PARAMETER_VALUE(1.)),.T.,.PARAMETER.);
#218=(
BOUNDED_CURVE()
B_SPLINE_CURVE(3,(#344,#345,#346,#347,#348,#349,#350,#351,#352,#353,#354,
#355,#356,#357,#358,#359,#360,#361,#362),.UNSPECIFIED.,.T.,.F.)
B_SPLINE_CURVE_WITH_KNOTS((1,3,3,3,3,3,3,3,1),(-0.243459508893388,0.,0.279260945923386,
0.442163164378696,0.465434909872309,0.662902218455308,0.756540491106612,
1.,1.27926094592339),.UNSPECIFIED.)
CURVE()
GEOMETRIC_REPRESENTATION_ITEM()
RATIONAL_B_SPLINE_CURVE((1.,1.,1.,1.,1.,1.,1.,1.,1.,1.,0.804737854124364,
0.804737854124364,1.,1.,1.,1.,1.,1.,1.))
REPRESENTATION_ITEM('CUTTING PART LINE')
);
#219=PRESENTATION_LAYER_ASSIGNMENT('1','Layer 1',(#343,#217,#241,#242,#243,
#46,#47));
#220=STYLED_ITEM('',(#227),#343);
#221=STYLED_ITEM('',(#228),#217);
#222=STYLED_ITEM('',(#229),#241);
#223=STYLED_ITEM('',(#230),#242);
#224=STYLED_ITEM('',(#231),#243);
#225=STYLED_ITEM('',(#232),#46);
#226=STYLED_ITEM('',(#233),#47);
#227=PRESENTATION_STYLE_ASSIGNMENT((#234));
#228=PRESENTATION_STYLE_ASSIGNMENT((#208));
#229=PRESENTATION_STYLE_ASSIGNMENT((#209));
#230=PRESENTATION_STYLE_ASSIGNMENT((#210));
#231=PRESENTATION_STYLE_ASSIGNMENT((#211));
#232=PRESENTATION_STYLE_ASSIGNMENT((#36));
#233=PRESENTATION_STYLE_ASSIGNMENT((#37));
#234=POINT_STYLE('',#235,POSITIVE_LENGTH_MEASURE(3.),#236);
#235=PRE_DEFINED_POINT_MARKER_SYMBOL('plus');
#236=COLOUR_RGB('Medium Royal',0.2,0.4,0.8);
#237=COLOUR_RGB('Strong Stone',0.576470588235294,0.54508278019379,0.392156862745098);
#238=COLOUR_RGB('Medium Gray',0.490196078431373,0.490196078431373,0.490196078431373);
#239=COLOUR_RGB('Light Gray',0.8,0.8,0.8);
#240=AXIS2_PLACEMENT_3D('',#342,#274,#275);
#241=AXIS2_PLACEMENT_3D('MCS',#363,#276,#277);
#242=AXIS2_PLACEMENT_3D('PCS',#364,#278,#279);
#243=AXIS2_PLACEMENT_3D('CIP',#365,#280,#281);
#244=AXIS2_PLACEMENT_3D('',#366,#282,#283);
#245=AXIS2_PLACEMENT_3D('',#368,#284,#285);
#246=AXIS2_PLACEMENT_3D('',#369,#286,#287);
#247=AXIS2_PLACEMENT_3D('',#371,#288,#289);
#248=AXIS2_PLACEMENT_3D('',#372,#290,#291);
#249=AXIS2_PLACEMENT_3D('',#374,#292,#293);
#250=AXIS2_PLACEMENT_3D('',#375,#294,#295);
#251=AXIS2_PLACEMENT_3D('',#377,#296,#297);
#252=AXIS2_PLACEMENT_3D('',#378,#298,#299);
#253=AXIS2_PLACEMENT_3D('',#380,#300,#301);
#254=AXIS2_PLACEMENT_3D('',#381,#302,#303);
#255=AXIS2_PLACEMENT_3D('',#383,#304,#305);
#256=AXIS2_PLACEMENT_3D('',#384,#306,#307);
#257=AXIS2_PLACEMENT_3D('',#386,#308,#309);
#258=AXIS2_PLACEMENT_3D('',#387,#310,#311);
#259=AXIS2_PLACEMENT_3D('',#389,#312,#313);
#260=AXIS2_PLACEMENT_3D('',#390,#314,#315);
#261=AXIS2_PLACEMENT_3D('',#392,#316,#317);
#262=AXIS2_PLACEMENT_3D('',#393,#318,#319);
#263=AXIS2_PLACEMENT_3D('',#395,#320,#321);
#264=AXIS2_PLACEMENT_3D('',#396,#322,#323);
#265=AXIS2_PLACEMENT_3D('',#397,#324,#325);
#266=AXIS2_PLACEMENT_3D('',#399,#326,#327);
#267=AXIS2_PLACEMENT_3D('',#401,#328,#329);
#268=AXIS2_PLACEMENT_3D('',#402,#330,#331);
#269=AXIS2_PLACEMENT_3D('',#404,#332,#333);
#270=AXIS2_PLACEMENT_3D('',#405,#334,#335);
#271=AXIS2_PLACEMENT_3D('',#407,#336,#337);
#272=AXIS2_PLACEMENT_3D('',#408,#338,#339);
#273=AXIS2_PLACEMENT_3D('',#409,#340,#341);
#274=DIRECTION('',(0.,0.,1.));
#275=DIRECTION('',(1.,0.,0.));
#276=DIRECTION('',(0.,0.,1.));
#277=DIRECTION('',(1.,0.,0.));
#278=DIRECTION('',(0.,0.,1.));
#279=DIRECTION('',(1.,0.,0.));
#280=DIRECTION('',(0.,0.,1.));
#281=DIRECTION('',(1.,0.,0.));
#282=DIRECTION('',(0.,0.,-1.));
#283=DIRECTION('',(-1.,1.1292709686751E-16,0.));
#284=DIRECTION('',(0.,0.,1.));
#285=DIRECTION('',(-1.,0.,0.));
#286=DIRECTION('',(0.,0.,-1.));
#287=DIRECTION('',(-1.,-1.71989677960094E-17,0.));
#288=DIRECTION('',(0.,0.,-1.));
#289=DIRECTION('',(1.,0.,0.));
#290=DIRECTION('',(0.,0.,-1.));
#291=DIRECTION('',(-1.,-1.71989677960094E-17,0.));
#292=DIRECTION('',(0.,0.,-1.));
#293=DIRECTION('',(1.,0.,0.));
#294=DIRECTION('',(0.,0.,-1.));
#295=DIRECTION('',(-1.,-2.92204382054534E-16,0.));
#296=DIRECTION('',(0.,0.,1.));
#297=DIRECTION('',(-1.,0.,0.));
#298=DIRECTION('',(0.,0.,-1.));
#299=DIRECTION('',(-1.,-5.04148906373601E-16,0.));
#300=DIRECTION('',(-1.04176154658461E-17,-2.08352309316922E-17,1.));
#301=DIRECTION('',(0.,1.,2.08352309316923E-17));
#302=DIRECTION('',(-8.98777403949076E-33,-3.34473963534191E-16,-1.));
#303=DIRECTION('',(-1.,2.68713712257964E-17,0.));
#304=DIRECTION('',(0.,0.,-1.));
#305=DIRECTION('',(1.,0.,3.83832660251425E-16));
#306=DIRECTION('',(0.,0.,-1.));
#307=DIRECTION('',(-1.,-5.6410782698135E-17,0.));
#308=DIRECTION('',(0.,0.,-1.));
#309=DIRECTION('',(1.,0.,-4.78079169394145E-16));
#310=DIRECTION('',(0.,0.,-1.));
#311=DIRECTION('',(-1.,-8.21992047078242E-17,0.));
#312=DIRECTION('',(0.,0.,1.));
#313=DIRECTION('',(-1.,0.,0.));
#314=DIRECTION('',(0.,0.,-1.));
#315=DIRECTION('',(-1.,2.05643582970341E-16,0.));
#316=DIRECTION('',(0.,0.,1.));
#317=DIRECTION('',(-1.,0.,0.));
#318=DIRECTION('',(-6.45947941600091E-16,2.10147314327327E-15,-1.));
#319=DIRECTION('',(-1.,1.85457709795339E-16,6.30808536718839E-16));
#320=DIRECTION('',(0.,0.,-1.));
#321=DIRECTION('',(1.,0.,0.));
#322=DIRECTION('',(-6.80550598657045E-16,0.,-1.));
#323=DIRECTION('',(1.,0.,-7.12888918249835E-16));
#324=DIRECTION('',(3.85846751832071E-16,-9.3084904453306E-16,-1.));
#325=DIRECTION('',(0.923782503914851,0.382917596175481,0.));
#326=DIRECTION('',(0.,0.,-1.));
#327=DIRECTION('',(0.923782503914851,0.382917596175481,0.));
#328=DIRECTION('',(0.,0.,1.));
#329=DIRECTION('',(-1.,0.,0.));
#330=DIRECTION('',(4.20923729271344E-16,-1.01547168494514E-15,1.));
#331=DIRECTION('',(0.923782503914851,0.382917596175481,0.));
#332=DIRECTION('',(0.,0.,-1.));
#333=DIRECTION('',(0.92378250391485,0.382917596175482,0.));
#334=DIRECTION('',(0.,0.,1.));
#335=DIRECTION('',(0.923782503914851,0.382917596175481,0.));
#336=DIRECTION('',(2.66678039963284E-16,-1.1038247679853E-16,-1.));
#337=DIRECTION('',(1.,0.,2.04085114820799E-16));
#338=DIRECTION('',(0.,0.,-1.));
#339=DIRECTION('',(0.923782503914851,0.38291759617548,0.));
#340=DIRECTION('',(0.,0.,1.));
#341=DIRECTION('',(-1.,0.,0.));
#342=CARTESIAN_POINT('',(0.,0.,0.));
#343=CARTESIAN_POINT('CRP',(-2.5,0.,-14.5));
#344=CARTESIAN_POINT('',(0.,0.,-8.));
#345=CARTESIAN_POINT('',(-1.99999999999999,0.,-8.));
#346=CARTESIAN_POINT('',(-3.99999999999998,0.,-8.));
#347=CARTESIAN_POINT('',(-5.99999999999996,0.,-8.));
#348=CARTESIAN_POINT('',(-5.99999999999997,0.,-9.16666666666667));
#349=CARTESIAN_POINT('',(-5.99999999999997,0.,-10.3333333333333));
#350=CARTESIAN_POINT('',(-5.99999999999997,0.,-11.5));
#351=CARTESIAN_POINT('',(-5.83333333333331,0.,-11.5));
#352=CARTESIAN_POINT('',(-5.66666666666667,0.,-11.5));
#353=CARTESIAN_POINT('',(-5.50000000000002,0.,-11.5));
#354=CARTESIAN_POINT('',(-3.74264068711929,0.,-11.5));
#355=CARTESIAN_POINT('',(-2.49999999999999,-1.90819582357449E-14,-12.7426406871193));
#356=CARTESIAN_POINT('',(-2.49999999999999,-1.90819582357449E-14,-14.5));
#357=CARTESIAN_POINT('',(-1.6666666666667,0.,-14.5));
#358=CARTESIAN_POINT('',(-0.833333333333348,0.,-14.5));
#359=CARTESIAN_POINT('',(0.,0.,-14.5));
#360=CARTESIAN_POINT('',(0.,0.,-12.3333333333333));
#361=CARTESIAN_POINT('',(0.,0.,-10.1666666666667));
#362=CARTESIAN_POINT('',(0.,0.,-8.));
#363=CARTESIAN_POINT('',(0.,0.,0.));
#364=CARTESIAN_POINT('',(0.,0.,0.));
#365=CARTESIAN_POINT('',(0.,0.,-14.5));
#366=CARTESIAN_POINT('',(-1.48492329543615E-15,-7.21644966006352E-16,13.8));
#367=CARTESIAN_POINT('',(-2.55,-4.33680868994202E-16,13.8));
#368=CARTESIAN_POINT('',(-2.551,-2.551,13.8));
#369=CARTESIAN_POINT('',(-2.13717932240343E-15,-3.33066907387547E-16,-8.));
#370=CARTESIAN_POINT('',(-5.85,-4.33680868994202E-16,-8.));
#371=CARTESIAN_POINT('',(5.851,-5.851,-8.));
#372=CARTESIAN_POINT('',(-2.13717932240343E-15,-3.33066907387547E-16,0.));
#373=CARTESIAN_POINT('',(-5.85,-4.33680868994202E-16,0.));
#374=CARTESIAN_POINT('',(-2.54353269213169E-15,0.,0.8012));
#375=CARTESIAN_POINT('',(-2.09554595897998E-15,9.99200722162641E-16,0.));
#376=CARTESIAN_POINT('',(-4.90369645068986,-4.33680868994201E-16,0.));
#377=CARTESIAN_POINT('',(-5.851,-5.851,0.));
#378=CARTESIAN_POINT('',(-8.32667268468867E-16,1.88737914186277E-15,0.288483657273744));
#379=CARTESIAN_POINT('',(-4.60391757576667,-4.33680868994197E-16,0.288483657273744));
#380=CARTESIAN_POINT('',(-6.07153216591882E-15,-6.08194050677468E-15,0.3));
#381=CARTESIAN_POINT('',(-1.63757896132211E-15,-5.55111512312578E-16,2.50000000000007));
#382=CARTESIAN_POINT('',(-4.51895968754297,-4.33680868994202E-16,2.50000000000007));
#383=CARTESIAN_POINT('',(-3.55402258596436E-15,1.75554015768853E-15,2.50100000000007));
#384=CARTESIAN_POINT('',(-1.74860126378462E-15,-2.22044604925031E-16,9.8));
#385=CARTESIAN_POINT('',(-3.75169877010353,-4.33680868994202E-16,9.8));
#386=CARTESIAN_POINT('',(1.74476413688196E-15,-3.83373888190874E-15,9.801));
#387=CARTESIAN_POINT('',(-8.74300631892311E-16,-1.66533453693773E-16,9.8));
#388=CARTESIAN_POINT('',(-3.25,-4.33680868994202E-16,9.8));
#389=CARTESIAN_POINT('',(-3.75269877010353,-3.75269877010353,9.8));
#390=CARTESIAN_POINT('',(-6.80011602582908E-16,-9.99200722162641E-16,10.3));
#391=CARTESIAN_POINT('',(-2.75,-4.33680868994203E-16,10.3));
#392=CARTESIAN_POINT('',(1.30104260698261E-15,-8.77770078844264E-16,10.3));
#393=CARTESIAN_POINT('',(-6.86950496486816E-16,-9.43689570931383E-16,13.6));
#394=CARTESIAN_POINT('',(-2.75,-4.33680868994201E-16,13.6));
#395=CARTESIAN_POINT('',(-1.76861096261486E-15,-3.27862736959617E-16,13.9312));
#396=CARTESIAN_POINT('',(-1.62714868132295E-15,-4.38885039422132E-16,13.801));
#397=CARTESIAN_POINT('',(3.68594044175552E-14,1.62092561595273E-14,-11.5));
#398=CARTESIAN_POINT('',(5.54269502348914,2.2975055770529,-11.5));
#399=CARTESIAN_POINT('',(3.68594044175552E-14,1.62092561595273E-14,-8.));
#400=CARTESIAN_POINT('',(5.54269502348914,2.2975055770529,-8.));
#401=CARTESIAN_POINT('',(3.31765864780564E-14,1.49619899803E-14,-11.8512));
#402=CARTESIAN_POINT('',(3.68871599931708E-14,1.43218770176645E-14,-11.5));
#403=CARTESIAN_POINT('',(5.08080377153179,2.10604677896519,-11.5));
#404=CARTESIAN_POINT('',(13.3885767719429,-5.54175463828139,-11.5));
#405=CARTESIAN_POINT('',(3.65540930857833E-14,1.55431223447522E-14,-14.5));
#406=CARTESIAN_POINT('',(2.30945625978724,0.957293990438748,-14.5));
#407=CARTESIAN_POINT('',(6.85215773010839E-14,-1.90819582357449E-14,-14.5));
#408=CARTESIAN_POINT('',(5.57956967631484,-2.30947670241761,-14.5));
#409=CARTESIAN_POINT('',(-7.84120060054195,-7.84120060054197,-8.));
#410=MECHANICAL_DESIGN_GEOMETRIC_PRESENTATION_REPRESENTATION('',(#220,#221,
#222,#223,#224,#225,#226),#411);
#411=(
GEOMETRIC_REPRESENTATION_CONTEXT(3)
GLOBAL_UNCERTAINTY_ASSIGNED_CONTEXT((#412))
GLOBAL_UNIT_ASSIGNED_CONTEXT((#418,#414,#413))
REPRESENTATION_CONTEXT('XVK310E12120D1K300Z4_Basic',
'TOP_LEVEL_ASSEMBLY_PART')
);
#412=UNCERTAINTY_MEASURE_WITH_UNIT(LENGTH_MEASURE(2.E-5),#418,
'DISTANCE_ACCURACY_VALUE','Maximum Tolerance applied to model');
#413=(
NAMED_UNIT(*)
SI_UNIT($,.STERADIAN.)
SOLID_ANGLE_UNIT()
);
#414=(
CONVERSION_BASED_UNIT('DEGREE',#416)
NAMED_UNIT(#415)
PLANE_ANGLE_UNIT()
);
#415=DIMENSIONAL_EXPONENTS(0.,0.,0.,0.,0.,0.,0.);
#416=PLANE_ANGLE_MEASURE_WITH_UNIT(PLANE_ANGLE_MEASURE(0.0174532925),#417);
#417=(
NAMED_UNIT(*)
PLANE_ANGLE_UNIT()
SI_UNIT($,.RADIAN.)
);
#418=(
LENGTH_UNIT()
NAMED_UNIT(*)
SI_UNIT(.MILLI.,.METRE.)
);
ENDSEC;
END-ISO-10303-21;
