ISO-10303-21;
HEADER;
/* Generated by software containing ST-Developer
 * from STEP Tools, Inc. (www.steptools.com) 
 */
/* OPTION: using custom schema-name function */

FILE_DESCRIPTION(
/* description */ (''),
/* implementation_level */ '2;1');

FILE_NAME(
/* name */ 'XHF580E16160D1HZ4A_Basic.stp',
/* time_stamp */ '2022-07-12T18:50:23+05:00',
/* author */ (''),
/* organization */ (''),
/* preprocessor_version */ 'ST-DEVELOPER v16.7',
/* originating_system */ 'SIEMENS PLM Software NX 12.0',
/* authorisation */ '');

FILE_SCHEMA (('AUTOMOTIVE_DESIGN { 1 0 10303 214 3 1 1 1 }'));
ENDSEC;

DATA;
#10=CONSTRUCTIVE_GEOMETRY_REPRESENTATION_RELATIONSHIP(
'supplemental geometry','',#34,#11);
#11=CONSTRUCTIVE_GEOMETRY_REPRESENTATION('supplemental geometry',(#274,
#275,#276),#489);
#12=GEOMETRICALLY_BOUNDED_WIREFRAME_SHAPE_REPRESENTATION(
'inpu43DC1522w1jc-None',(#35),#489);
#13=PROPERTY_DEFINITION_REPRESENTATION(#17,#15);
#14=PROPERTY_DEFINITION_REPRESENTATION(#18,#16);
#15=REPRESENTATION('',(#19),#489);
#16=REPRESENTATION('',(#20),#489);
#17=PROPERTY_DEFINITION('pmi validation property','',#25);
#18=PROPERTY_DEFINITION('pmi validation property','',#25);
#19=VALUE_REPRESENTATION_ITEM('number of annotations',COUNT_MEASURE(0.));
#20=VALUE_REPRESENTATION_ITEM('number of views',COUNT_MEASURE(0.));
#21=SHAPE_REPRESENTATION_RELATIONSHIP('None',
'relationship between inpu43DC1522w1jc-None and inpu43DC1522w1jc-None',
#34,#23);
#22=SHAPE_REPRESENTATION_RELATIONSHIP('None',
'relationship between inpu43DC1522w1jc-None and inpu43DC1522w1jc-None',
#34,#12);
#23=ADVANCED_BREP_SHAPE_REPRESENTATION('inpu43DC1522w1jc-None',(#49,#50),
#489);
#24=SHAPE_DEFINITION_REPRESENTATION(#25,#34);
#25=PRODUCT_DEFINITION_SHAPE('','',#26);
#26=PRODUCT_DEFINITION(' ','',#28,#27);
#27=PRODUCT_DEFINITION_CONTEXT('part definition',#33,'design');
#28=PRODUCT_DEFINITION_FORMATION_WITH_SPECIFIED_SOURCE(' ',' ',#30,
 .NOT_KNOWN.);
#29=PRODUCT_RELATED_PRODUCT_CATEGORY('part','',(#30));
#30=PRODUCT('inpu43DC1522w1jc','inpu43DC1522w1jc',' ',(#31));
#31=PRODUCT_CONTEXT(' ',#33,'mechanical');
#32=APPLICATION_PROTOCOL_DEFINITION('international standard',
'automotive_design',2010,#33);
#33=APPLICATION_CONTEXT(
'core data for automotive mechanical design processes');
#34=SHAPE_REPRESENTATION('inpu43DC1522w1jc-None',(#273),#489);
#35=GEOMETRIC_CURVE_SET('None',(#385,#386,#387,#388,#238));
#36=CONICAL_SURFACE('',#288,3.3,44.9999999999997);
#37=CONICAL_SURFACE('',#296,4.55949583781244,6.);
#38=CONICAL_SURFACE('',#298,5.63155903752234,2.19999999999997);
#39=SURFACE_STYLE_USAGE(.BOTH.,#41);
#40=SURFACE_STYLE_USAGE(.BOTH.,#42);
#41=SURFACE_SIDE_STYLE('',(#43));
#42=SURFACE_SIDE_STYLE('',(#44));
#43=SURFACE_STYLE_FILL_AREA(#45);
#44=SURFACE_STYLE_FILL_AREA(#46);
#45=FILL_AREA_STYLE('',(#47));
#46=FILL_AREA_STYLE('',(#48));
#47=FILL_AREA_STYLE_COLOUR('',#241);
#48=FILL_AREA_STYLE_COLOUR('',#242);
#49=MANIFOLD_SOLID_BREP('CUT',#51);
#50=MANIFOLD_SOLID_BREP('NOCUT',#52);
#51=CLOSED_SHELL('',(#68,#69,#70,#71,#72));
#52=CLOSED_SHELL('',(#73,#74,#75,#76,#77,#78,#79,#80,#81,#82,#83,#84,#85));
#53=TOROIDAL_SURFACE('',#283,6.00000000000001,2.);
#54=TOROIDAL_SURFACE('',#292,4.,0.5);
#55=TOROIDAL_SURFACE('',#300,6.12405278839403,0.4);
#56=(
BOUNDED_SURFACE()
B_SPLINE_SURFACE(3,3,((#421,#422,#423,#424,#425,#426,#427),(#428,#429,#430,
#431,#432,#433,#434),(#435,#436,#437,#438,#439,#440,#441),(#442,#443,#444,
#445,#446,#447,#448)),.UNSPECIFIED.,.F.,.T.,.F.)
B_SPLINE_SURFACE_WITH_KNOTS((4,4),(1,3,3,3,1),(0.,1.),(-0.5,0.,0.5,1.,1.5),
 .UNSPECIFIED.)
GEOMETRIC_REPRESENTATION_ITEM()
RATIONAL_B_SPLINE_SURFACE(((1.,0.333333333333333,0.333333333333333,1.,0.333333333333333,
0.333333333333333,1.),(0.978905671841537,0.326301890613846,0.326301890613846,
0.978905671841537,0.326301890613846,0.326301890613846,0.978905671841537),
(0.978905671841537,0.326301890613846,0.326301890613846,0.978905671841537,
0.326301890613846,0.326301890613846,0.978905671841537),(1.,0.333333333333333,
0.333333333333333,1.,0.333333333333333,0.333333333333333,1.)))
REPRESENTATION_ITEM('')
SURFACE()
);
#57=PLANE('',#280);
#58=PLANE('',#284);
#59=PLANE('',#286);
#60=PLANE('',#294);
#61=PLANE('',#302);
#62=PLANE('',#306);
#63=PLANE('',#309);
#64=FACE_OUTER_BOUND('',#120,.T.);
#65=FACE_OUTER_BOUND('',#125,.T.);
#66=FACE_OUTER_BOUND('',#126,.T.);
#67=FACE_OUTER_BOUND('',#149,.T.);
#68=ADVANCED_FACE('',(#90,#91),#86,.T.);
#69=ADVANCED_FACE('',(#64),#57,.F.);
#70=ADVANCED_FACE('',(#92,#93),#56,.T.);
#71=ADVANCED_FACE('',(#94,#95),#53,.T.);
#72=ADVANCED_FACE('',(#65),#58,.F.);
#73=ADVANCED_FACE('',(#66),#59,.F.);
#74=ADVANCED_FACE('',(#96,#97),#36,.T.);
#75=ADVANCED_FACE('',(#98,#99),#87,.T.);
#76=ADVANCED_FACE('',(#100,#101),#54,.F.);
#77=ADVANCED_FACE('',(#102,#103),#60,.F.);
#78=ADVANCED_FACE('',(#104,#105),#37,.T.);
#79=ADVANCED_FACE('',(#106,#107),#38,.T.);
#80=ADVANCED_FACE('',(#108,#109),#55,.F.);
#81=ADVANCED_FACE('',(#110,#111),#61,.F.);
#82=ADVANCED_FACE('',(#112,#113),#88,.T.);
#83=ADVANCED_FACE('',(#114,#115),#62,.T.);
#84=ADVANCED_FACE('',(#116,#117),#89,.T.);
#85=ADVANCED_FACE('',(#67),#63,.F.);
#86=CYLINDRICAL_SURFACE('',#279,8.);
#87=CYLINDRICAL_SURFACE('',#290,3.5);
#88=CYLINDRICAL_SURFACE('',#304,7.75);
#89=CYLINDRICAL_SURFACE('',#308,8.);
#90=FACE_BOUND('',#118,.T.);
#91=FACE_BOUND('',#119,.T.);
#92=FACE_BOUND('',#121,.T.);
#93=FACE_BOUND('',#122,.T.);
#94=FACE_BOUND('',#123,.T.);
#95=FACE_BOUND('',#124,.T.);
#96=FACE_BOUND('',#127,.T.);
#97=FACE_BOUND('',#128,.T.);
#98=FACE_BOUND('',#129,.T.);
#99=FACE_BOUND('',#130,.T.);
#100=FACE_BOUND('',#131,.T.);
#101=FACE_BOUND('',#132,.T.);
#102=FACE_BOUND('',#133,.T.);
#103=FACE_BOUND('',#134,.T.);
#104=FACE_BOUND('',#135,.T.);
#105=FACE_BOUND('',#136,.T.);
#106=FACE_BOUND('',#137,.T.);
#107=FACE_BOUND('',#138,.T.);
#108=FACE_BOUND('',#139,.T.);
#109=FACE_BOUND('',#140,.T.);
#110=FACE_BOUND('',#141,.T.);
#111=FACE_BOUND('',#142,.T.);
#112=FACE_BOUND('',#143,.T.);
#113=FACE_BOUND('',#144,.T.);
#114=FACE_BOUND('',#145,.T.);
#115=FACE_BOUND('',#146,.T.);
#116=FACE_BOUND('',#147,.T.);
#117=FACE_BOUND('',#148,.T.);
#118=EDGE_LOOP('',(#150));
#119=EDGE_LOOP('',(#151));
#120=EDGE_LOOP('',(#152));
#121=EDGE_LOOP('',(#153));
#122=EDGE_LOOP('',(#154));
#123=EDGE_LOOP('',(#155));
#124=EDGE_LOOP('',(#156));
#125=EDGE_LOOP('',(#157));
#126=EDGE_LOOP('',(#158));
#127=EDGE_LOOP('',(#159));
#128=EDGE_LOOP('',(#160));
#129=EDGE_LOOP('',(#161));
#130=EDGE_LOOP('',(#162));
#131=EDGE_LOOP('',(#163));
#132=EDGE_LOOP('',(#164));
#133=EDGE_LOOP('',(#165));
#134=EDGE_LOOP('',(#166));
#135=EDGE_LOOP('',(#167));
#136=EDGE_LOOP('',(#168));
#137=EDGE_LOOP('',(#169));
#138=EDGE_LOOP('',(#170));
#139=EDGE_LOOP('',(#171));
#140=EDGE_LOOP('',(#172));
#141=EDGE_LOOP('',(#173));
#142=EDGE_LOOP('',(#174));
#143=EDGE_LOOP('',(#175));
#144=EDGE_LOOP('',(#176));
#145=EDGE_LOOP('',(#177));
#146=EDGE_LOOP('',(#178));
#147=EDGE_LOOP('',(#179));
#148=EDGE_LOOP('',(#180));
#149=EDGE_LOOP('',(#181));
#150=ORIENTED_EDGE('',*,*,#198,.T.);
#151=ORIENTED_EDGE('',*,*,#199,.F.);
#152=ORIENTED_EDGE('',*,*,#199,.T.);
#153=ORIENTED_EDGE('',*,*,#200,.T.);
#154=ORIENTED_EDGE('',*,*,#201,.T.);
#155=ORIENTED_EDGE('',*,*,#200,.F.);
#156=ORIENTED_EDGE('',*,*,#198,.F.);
#157=ORIENTED_EDGE('',*,*,#201,.F.);
#158=ORIENTED_EDGE('',*,*,#202,.F.);
#159=ORIENTED_EDGE('',*,*,#203,.F.);
#160=ORIENTED_EDGE('',*,*,#202,.T.);
#161=ORIENTED_EDGE('',*,*,#204,.F.);
#162=ORIENTED_EDGE('',*,*,#203,.T.);
#163=ORIENTED_EDGE('',*,*,#205,.F.);
#164=ORIENTED_EDGE('',*,*,#204,.T.);
#165=ORIENTED_EDGE('',*,*,#206,.F.);
#166=ORIENTED_EDGE('',*,*,#205,.T.);
#167=ORIENTED_EDGE('',*,*,#207,.F.);
#168=ORIENTED_EDGE('',*,*,#206,.T.);
#169=ORIENTED_EDGE('',*,*,#208,.F.);
#170=ORIENTED_EDGE('',*,*,#207,.T.);
#171=ORIENTED_EDGE('',*,*,#209,.F.);
#172=ORIENTED_EDGE('',*,*,#208,.T.);
#173=ORIENTED_EDGE('',*,*,#210,.T.);
#174=ORIENTED_EDGE('',*,*,#209,.T.);
#175=ORIENTED_EDGE('',*,*,#211,.T.);
#176=ORIENTED_EDGE('',*,*,#210,.F.);
#177=ORIENTED_EDGE('',*,*,#212,.F.);
#178=ORIENTED_EDGE('',*,*,#211,.F.);
#179=ORIENTED_EDGE('',*,*,#213,.F.);
#180=ORIENTED_EDGE('',*,*,#212,.T.);
#181=ORIENTED_EDGE('',*,*,#213,.T.);
#182=VERTEX_POINT('',#412);
#183=VERTEX_POINT('',#414);
#184=VERTEX_POINT('',#418);
#185=VERTEX_POINT('',#420);
#186=VERTEX_POINT('',#452);
#187=VERTEX_POINT('',#455);
#188=VERTEX_POINT('',#458);
#189=VERTEX_POINT('',#461);
#190=VERTEX_POINT('',#464);
#191=VERTEX_POINT('',#467);
#192=VERTEX_POINT('',#470);
#193=VERTEX_POINT('',#473);
#194=VERTEX_POINT('',#476);
#195=VERTEX_POINT('',#479);
#196=VERTEX_POINT('',#482);
#197=VERTEX_POINT('',#485);
#198=EDGE_CURVE('',#182,#182,#214,.T.);
#199=EDGE_CURVE('',#183,#183,#215,.T.);
#200=EDGE_CURVE('',#184,#184,#216,.T.);
#201=EDGE_CURVE('',#185,#185,#217,.T.);
#202=EDGE_CURVE('',#186,#186,#218,.T.);
#203=EDGE_CURVE('',#187,#187,#219,.T.);
#204=EDGE_CURVE('',#188,#188,#220,.T.);
#205=EDGE_CURVE('',#189,#189,#221,.T.);
#206=EDGE_CURVE('',#190,#190,#222,.T.);
#207=EDGE_CURVE('',#191,#191,#223,.T.);
#208=EDGE_CURVE('',#192,#192,#224,.T.);
#209=EDGE_CURVE('',#193,#193,#225,.T.);
#210=EDGE_CURVE('',#194,#194,#226,.T.);
#211=EDGE_CURVE('',#195,#195,#227,.T.);
#212=EDGE_CURVE('',#196,#196,#228,.T.);
#213=EDGE_CURVE('',#197,#197,#229,.T.);
#214=CIRCLE('',#277,8.00000000000001);
#215=CIRCLE('',#278,8.00000000000001);
#216=CIRCLE('',#281,6.96666666666667);
#217=CIRCLE('',#282,3.1);
#218=CIRCLE('',#285,3.3);
#219=CIRCLE('',#287,3.5);
#220=CIRCLE('',#289,3.5);
#221=CIRCLE('',#291,4.);
#222=CIRCLE('',#293,4.55949583781244);
#223=CIRCLE('',#295,5.63155903752234);
#224=CIRCLE('',#297,5.72434762182978);
#225=CIRCLE('',#299,6.12405278839403);
#226=CIRCLE('',#301,7.75);
#227=CIRCLE('',#303,7.75);
#228=CIRCLE('',#305,8.);
#229=CIRCLE('',#307,8.);
#230=CURVE_STYLE('',#234,POSITIVE_LENGTH_MEASURE(0.18),#272);
#231=CURVE_STYLE('',#235,POSITIVE_LENGTH_MEASURE(0.18),#240);
#232=CURVE_STYLE('',#236,POSITIVE_LENGTH_MEASURE(0.18),#240);
#233=CURVE_STYLE('',#237,POSITIVE_LENGTH_MEASURE(0.18),#240);
#234=DRAUGHTING_PRE_DEFINED_CURVE_FONT('continuous');
#235=DRAUGHTING_PRE_DEFINED_CURVE_FONT('continuous');
#236=DRAUGHTING_PRE_DEFINED_CURVE_FONT('continuous');
#237=DRAUGHTING_PRE_DEFINED_CURVE_FONT('continuous');
#238=TRIMMED_CURVE('CUTTING PART LINE',#239,(PARAMETER_VALUE(0.)),(
PARAMETER_VALUE(1.)),.T.,.PARAMETER.);
#239=(
BOUNDED_CURVE()
B_SPLINE_CURVE(3,(#389,#390,#391,#392,#393,#394,#395,#396,#397,#398,#399,
#400,#401,#402,#403,#404,#405,#406,#407),.UNSPECIFIED.,.T.,.F.)
B_SPLINE_CURVE_WITH_KNOTS((4,3,3,3,3,3,4),(0.,0.229129976465012,0.293359884263456,
0.407836967093257,0.494837223112731,0.775483210272325,1.),.UNSPECIFIED.)
CURVE()
GEOMETRIC_REPRESENTATION_ITEM()
RATIONAL_B_SPLINE_CURVE((1.,1.,1.,1.,0.907467141456172,0.907467141456172,
1.,0.978905671841537,0.978905671841537,1.,1.,1.,1.,1.,1.,1.,1.,1.,1.))
REPRESENTATION_ITEM('CUTTING PART LINE')
);
#240=COLOUR_RGB('Medium Maroon',0.6,0.4,0.4);
#241=COLOUR_RGB('Light Gray',0.8,0.8,0.8);
#242=COLOUR_RGB('Medium Gray',0.490196078431373,0.490196078431373,0.490196078431373);
#243=PRESENTATION_LAYER_ASSIGNMENT('1','Layer 1',(#385,#386,#387,#388,#238,
#274,#275,#276,#49,#50));
#244=STYLED_ITEM('',(#254),#385);
#245=STYLED_ITEM('',(#255),#386);
#246=STYLED_ITEM('',(#256),#387);
#247=STYLED_ITEM('',(#257),#388);
#248=STYLED_ITEM('',(#258),#238);
#249=STYLED_ITEM('',(#259),#274);
#250=STYLED_ITEM('',(#260),#275);
#251=STYLED_ITEM('',(#261),#276);
#252=STYLED_ITEM('',(#262),#49);
#253=STYLED_ITEM('',(#263),#50);
#254=PRESENTATION_STYLE_ASSIGNMENT((#264));
#255=PRESENTATION_STYLE_ASSIGNMENT((#265));
#256=PRESENTATION_STYLE_ASSIGNMENT((#266));
#257=PRESENTATION_STYLE_ASSIGNMENT((#267));
#258=PRESENTATION_STYLE_ASSIGNMENT((#230));
#259=PRESENTATION_STYLE_ASSIGNMENT((#231));
#260=PRESENTATION_STYLE_ASSIGNMENT((#232));
#261=PRESENTATION_STYLE_ASSIGNMENT((#233));
#262=PRESENTATION_STYLE_ASSIGNMENT((#39));
#263=PRESENTATION_STYLE_ASSIGNMENT((#40));
#264=POINT_STYLE('',#268,POSITIVE_LENGTH_MEASURE(3.),#272);
#265=POINT_STYLE('',#269,POSITIVE_LENGTH_MEASURE(3.),#240);
#266=POINT_STYLE('',#270,POSITIVE_LENGTH_MEASURE(3.),#240);
#267=POINT_STYLE('',#271,POSITIVE_LENGTH_MEASURE(3.),#240);
#268=PRE_DEFINED_POINT_MARKER_SYMBOL('plus');
#269=PRE_DEFINED_POINT_MARKER_SYMBOL('plus');
#270=PRE_DEFINED_POINT_MARKER_SYMBOL('plus');
#271=PRE_DEFINED_POINT_MARKER_SYMBOL('plus');
#272=DRAUGHTING_PRE_DEFINED_COLOUR('blue');
#273=AXIS2_PLACEMENT_3D('',#384,#310,#311);
#274=AXIS2_PLACEMENT_3D('PCS',#408,#312,#313);
#275=AXIS2_PLACEMENT_3D('MCS',#409,#314,#315);
#276=AXIS2_PLACEMENT_3D('CIP',#410,#316,#317);
#277=AXIS2_PLACEMENT_3D('',#411,#318,#319);
#278=AXIS2_PLACEMENT_3D('',#413,#320,#321);
#279=AXIS2_PLACEMENT_3D('',#415,#322,#323);
#280=AXIS2_PLACEMENT_3D('',#416,#324,#325);
#281=AXIS2_PLACEMENT_3D('',#417,#326,#327);
#282=AXIS2_PLACEMENT_3D('',#419,#328,#329);
#283=AXIS2_PLACEMENT_3D('',#449,#330,#331);
#284=AXIS2_PLACEMENT_3D('',#450,#332,#333);
#285=AXIS2_PLACEMENT_3D('',#451,#334,#335);
#286=AXIS2_PLACEMENT_3D('',#453,#336,#337);
#287=AXIS2_PLACEMENT_3D('',#454,#338,#339);
#288=AXIS2_PLACEMENT_3D('',#456,#340,#341);
#289=AXIS2_PLACEMENT_3D('',#457,#342,#343);
#290=AXIS2_PLACEMENT_3D('',#459,#344,#345);
#291=AXIS2_PLACEMENT_3D('',#460,#346,#347);
#292=AXIS2_PLACEMENT_3D('',#462,#348,#349);
#293=AXIS2_PLACEMENT_3D('',#463,#350,#351);
#294=AXIS2_PLACEMENT_3D('',#465,#352,#353);
#295=AXIS2_PLACEMENT_3D('',#466,#354,#355);
#296=AXIS2_PLACEMENT_3D('',#468,#356,#357);
#297=AXIS2_PLACEMENT_3D('',#469,#358,#359);
#298=AXIS2_PLACEMENT_3D('',#471,#360,#361);
#299=AXIS2_PLACEMENT_3D('',#472,#362,#363);
#300=AXIS2_PLACEMENT_3D('',#474,#364,#365);
#301=AXIS2_PLACEMENT_3D('',#475,#366,#367);
#302=AXIS2_PLACEMENT_3D('',#477,#368,#369);
#303=AXIS2_PLACEMENT_3D('',#478,#370,#371);
#304=AXIS2_PLACEMENT_3D('',#480,#372,#373);
#305=AXIS2_PLACEMENT_3D('',#481,#374,#375);
#306=AXIS2_PLACEMENT_3D('',#483,#376,#377);
#307=AXIS2_PLACEMENT_3D('',#484,#378,#379);
#308=AXIS2_PLACEMENT_3D('',#486,#380,#381);
#309=AXIS2_PLACEMENT_3D('',#487,#382,#383);
#310=DIRECTION('',(0.,0.,1.));
#311=DIRECTION('',(1.,0.,0.));
#312=DIRECTION('',(0.,0.,1.));
#313=DIRECTION('',(1.,0.,0.));
#314=DIRECTION('',(0.,0.,1.));
#315=DIRECTION('',(1.,0.,0.));
#316=DIRECTION('',(0.,0.,1.));
#317=DIRECTION('',(1.,0.,0.));
#318=DIRECTION('',(0.,1.33226762955019E-16,1.));
#319=DIRECTION('',(0.,-1.,0.));
#320=DIRECTION('',(0.,0.,1.));
#321=DIRECTION('',(1.,0.,0.));
#322=DIRECTION('',(0.,0.,1.));
#323=DIRECTION('',(-1.,0.,0.));
#324=DIRECTION('',(0.,0.,-1.));
#325=DIRECTION('',(1.,0.,0.));
#326=DIRECTION('',(0.,-1.33226762955019E-16,-1.));
#327=DIRECTION('',(0.,-1.,0.));
#328=DIRECTION('',(0.,1.33226762955019E-16,1.));
#329=DIRECTION('',(0.,-1.,0.));
#330=DIRECTION('',(0.,1.33226762955019E-16,1.));
#331=DIRECTION('',(0.,1.,0.));
#332=DIRECTION('',(0.,0.,1.));
#333=DIRECTION('',(-1.,0.,0.));
#334=DIRECTION('',(0.,0.,-1.));
#335=DIRECTION('',(-1.,0.,0.));
#336=DIRECTION('',(0.,0.,-1.));
#337=DIRECTION('',(1.,0.,0.));
#338=DIRECTION('',(0.,0.,-1.));
#339=DIRECTION('',(-1.,0.,0.));
#340=DIRECTION('',(0.,0.,-1.));
#341=DIRECTION('',(1.,0.,1.38321417400724E-17));
#342=DIRECTION('',(0.,0.,-1.));
#343=DIRECTION('',(-1.,0.,0.));
#344=DIRECTION('',(0.,0.,-1.));
#345=DIRECTION('',(1.,0.,0.));
#346=DIRECTION('',(0.,0.,-1.));
#347=DIRECTION('',(-1.,0.,0.));
#348=DIRECTION('',(0.,0.,-1.));
#349=DIRECTION('',(1.,0.,0.));
#350=DIRECTION('',(0.,0.,-1.));
#351=DIRECTION('',(-1.,0.,0.));
#352=DIRECTION('',(0.,0.,-1.));
#353=DIRECTION('',(1.,0.,0.));
#354=DIRECTION('',(0.,0.,-1.));
#355=DIRECTION('',(-1.,0.,0.));
#356=DIRECTION('',(0.,0.,-1.));
#357=DIRECTION('',(1.,0.,9.49114237781912E-17));
#358=DIRECTION('',(0.,0.,-1.));
#359=DIRECTION('',(-1.,0.,0.));
#360=DIRECTION('',(0.,0.,-1.));
#361=DIRECTION('',(1.,0.,5.61205658877726E-16));
#362=DIRECTION('',(0.,0.,-1.));
#363=DIRECTION('',(-1.,0.,0.));
#364=DIRECTION('',(0.,0.,-1.));
#365=DIRECTION('',(1.,0.,0.));
#366=DIRECTION('',(0.,0.,1.));
#367=DIRECTION('',(1.,0.,0.));
#368=DIRECTION('',(0.,0.,-1.));
#369=DIRECTION('',(1.,0.,0.));
#370=DIRECTION('',(0.,0.,1.));
#371=DIRECTION('',(1.,0.,0.));
#372=DIRECTION('',(0.,0.,1.));
#373=DIRECTION('',(-1.,0.,0.));
#374=DIRECTION('',(0.,0.,-1.));
#375=DIRECTION('',(1.,0.,0.));
#376=DIRECTION('',(0.,0.,1.));
#377=DIRECTION('',(-1.,0.,0.));
#378=DIRECTION('',(0.,0.,-1.));
#379=DIRECTION('',(1.,0.,0.));
#380=DIRECTION('',(0.,0.,1.));
#381=DIRECTION('',(-1.,0.,0.));
#382=DIRECTION('',(0.,0.,1.));
#383=DIRECTION('',(-1.,0.,0.));
#384=CARTESIAN_POINT('',(0.,0.,0.));
#385=CARTESIAN_POINT('CRP',(-8.,0.,-18.7));
#386=CARTESIAN_POINT('',(0.,0.,0.));
#387=CARTESIAN_POINT('',(0.,0.,0.));
#388=CARTESIAN_POINT('',(0.,0.,-18.7));
#389=CARTESIAN_POINT('',(-8.,0.,-8.7));
#390=CARTESIAN_POINT('',(-8.,0.,-11.1175394648892));
#391=CARTESIAN_POINT('',(-8.,0.,-13.5350789297784));
#392=CARTESIAN_POINT('',(-8.,0.,-15.9526183946676));
#393=CARTESIAN_POINT('',(-8.,0.,-16.6994076347599));
#394=CARTESIAN_POINT('',(-7.62043314990809,-5.76244117488157E-16,-17.3425430601788));
#395=CARTESIAN_POINT('',(-6.9666666666667,-4.97975967560129E-16,-17.7034911928901));
#396=CARTESIAN_POINT('',(-5.77634849883805,-3.55472484726688E-16,-18.3606725122503));
#397=CARTESIAN_POINT('',(-4.45968548833138,-1.14925430283464E-15,-18.7));
#398=CARTESIAN_POINT('',(-3.1,-1.14925430283464E-15,-18.7));
#399=CARTESIAN_POINT('',(-2.06666666666666,-1.14925430283464E-15,-18.7));
#400=CARTESIAN_POINT('',(-1.03333333333333,0.,-18.7));
#401=CARTESIAN_POINT('',(0.,0.,-18.7));
#402=CARTESIAN_POINT('',(0.,0.,-15.3666666666667));
#403=CARTESIAN_POINT('',(0.,0.,-12.0333333333333));
#404=CARTESIAN_POINT('',(0.,0.,-8.7));
#405=CARTESIAN_POINT('',(-2.66666666666667,0.,-8.7));
#406=CARTESIAN_POINT('',(-5.33333333333334,0.,-8.7));
#407=CARTESIAN_POINT('',(-8.00000000000001,0.,-8.7));
#408=CARTESIAN_POINT('',(0.,0.,0.));
#409=CARTESIAN_POINT('',(0.,0.,0.));
#410=CARTESIAN_POINT('',(0.,0.,-18.7));
#411=CARTESIAN_POINT('',(0.,-3.63077813076996E-15,-15.9526183946676));
#412=CARTESIAN_POINT('',(0.,-8.00000000000001,-15.9526183946676));
#413=CARTESIAN_POINT('',(0.,0.,-8.7));
#414=CARTESIAN_POINT('',(8.00000000000001,0.,-8.7));
#415=CARTESIAN_POINT('',(0.,0.,0.));
#416=CARTESIAN_POINT('',(0.,8.00000000000001,-8.7));
#417=CARTESIAN_POINT('',(0.,-3.86404124602314E-15,-17.7034911928901));
#418=CARTESIAN_POINT('',(0.,-6.96666666666667,-17.7034911928901));
#419=CARTESIAN_POINT('',(0.,-3.99680288865057E-15,-18.7));
#420=CARTESIAN_POINT('',(0.,-3.1,-18.7));
#421=CARTESIAN_POINT('',(6.96666666666669,-5.20417042793042E-15,-17.7034911928901));
#422=CARTESIAN_POINT('',(6.96666666666669,13.9333333333334,-17.7034911928901));
#423=CARTESIAN_POINT('',(-6.96666666666669,13.9333333333334,-17.7034911928901));
#424=CARTESIAN_POINT('',(-6.96666666666669,-5.20417042793042E-15,-17.7034911928901));
#425=CARTESIAN_POINT('',(-6.96666666666669,-13.9333333333334,-17.7034911928901));
#426=CARTESIAN_POINT('',(6.96666666666669,-13.9333333333334,-17.7034911928901));
#427=CARTESIAN_POINT('',(6.96666666666669,-5.20417042793042E-15,-17.7034911928901));
#428=CARTESIAN_POINT('',(5.77634849883801,-5.20417042793042E-15,-18.3606725122502));
#429=CARTESIAN_POINT('',(5.77634849883801,11.552696997676,-18.3606725122502));
#430=CARTESIAN_POINT('',(-5.77634849883801,11.552696997676,-18.3606725122502));
#431=CARTESIAN_POINT('',(-5.77634849883801,-5.20417042793042E-15,-18.3606725122502));
#432=CARTESIAN_POINT('',(-5.77634849883801,-11.552696997676,-18.3606725122502));
#433=CARTESIAN_POINT('',(5.77634849883801,-11.552696997676,-18.3606725122502));
#434=CARTESIAN_POINT('',(5.77634849883801,-5.20417042793042E-15,-18.3606725122502));
#435=CARTESIAN_POINT('',(4.45968548833137,-5.20417042793042E-15,-18.7));
#436=CARTESIAN_POINT('',(4.45968548833137,8.91937097666274,-18.7));
#437=CARTESIAN_POINT('',(-4.45968548833137,8.91937097666274,-18.7));
#438=CARTESIAN_POINT('',(-4.45968548833137,-5.20417042793042E-15,-18.7));
#439=CARTESIAN_POINT('',(-4.45968548833137,-8.91937097666275,-18.7));
#440=CARTESIAN_POINT('',(4.45968548833137,-8.91937097666275,-18.7));
#441=CARTESIAN_POINT('',(4.45968548833137,-5.20417042793042E-15,-18.7));
#442=CARTESIAN_POINT('',(3.1,-5.20417042793042E-15,-18.7));
#443=CARTESIAN_POINT('',(3.1,6.2,-18.7));
#444=CARTESIAN_POINT('',(-3.1,6.2,-18.7));
#445=CARTESIAN_POINT('',(-3.1,-5.20417042793042E-15,-18.7));
#446=CARTESIAN_POINT('',(-3.1,-6.20000000000001,-18.7));
#447=CARTESIAN_POINT('',(3.1,-6.20000000000001,-18.7));
#448=CARTESIAN_POINT('',(3.1,-5.20417042793042E-15,-18.7));
#449=CARTESIAN_POINT('',(0.,-4.33680868994202E-15,-15.9526183946676));
#450=CARTESIAN_POINT('',(0.,-3.5527136788005E-15,-18.7));
#451=CARTESIAN_POINT('',(0.,0.,17.));
#452=CARTESIAN_POINT('',(-3.3,0.,17.));
#453=CARTESIAN_POINT('',(0.,0.,17.));
#454=CARTESIAN_POINT('',(0.,0.,16.8));
#455=CARTESIAN_POINT('',(-3.5,0.,16.8));
#456=CARTESIAN_POINT('',(0.,0.,17.));
#457=CARTESIAN_POINT('',(0.,0.,13.5));
#458=CARTESIAN_POINT('',(-3.5,0.,13.5));
#459=CARTESIAN_POINT('',(0.,0.,0.));
#460=CARTESIAN_POINT('',(0.,0.,13.));
#461=CARTESIAN_POINT('',(-4.,0.,13.));
#462=CARTESIAN_POINT('',(0.,0.,13.5));
#463=CARTESIAN_POINT('',(0.,0.,13.));
#464=CARTESIAN_POINT('',(-4.55949583781244,0.,13.));
#465=CARTESIAN_POINT('',(0.,4.,13.));
#466=CARTESIAN_POINT('',(0.,0.,2.8));
#467=CARTESIAN_POINT('',(-5.63155903752234,0.,2.8));
#468=CARTESIAN_POINT('',(0.,0.,13.));
#469=CARTESIAN_POINT('',(0.,0.,0.384644876364991));
#470=CARTESIAN_POINT('',(-5.72434762182978,0.,0.384644876364991));
#471=CARTESIAN_POINT('',(0.,0.,2.8));
#472=CARTESIAN_POINT('',(0.,0.,5.42101086242752E-17));
#473=CARTESIAN_POINT('',(-6.12405278839403,0.,5.42101086242752E-17));
#474=CARTESIAN_POINT('',(0.,0.,0.4));
#475=CARTESIAN_POINT('',(0.,0.,0.));
#476=CARTESIAN_POINT('',(7.75,0.,0.));
#477=CARTESIAN_POINT('',(0.,7.75,0.));
#478=CARTESIAN_POINT('',(0.,0.,-8.7));
#479=CARTESIAN_POINT('',(7.75,0.,-8.7));
#480=CARTESIAN_POINT('',(0.,0.,0.));
#481=CARTESIAN_POINT('',(0.,0.,-8.7));
#482=CARTESIAN_POINT('',(8.,0.,-8.7));
#483=CARTESIAN_POINT('',(0.,0.,-8.7));
#484=CARTESIAN_POINT('',(0.,0.,-8.7001));
#485=CARTESIAN_POINT('',(8.,0.,-8.7001));
#486=CARTESIAN_POINT('',(0.,0.,-8.7001));
#487=CARTESIAN_POINT('',(0.,0.,-8.7001));
#488=MECHANICAL_DESIGN_GEOMETRIC_PRESENTATION_REPRESENTATION('',(#244,#245,
#246,#247,#248,#249,#250,#251,#252,#253),#489);
#489=(
GEOMETRIC_REPRESENTATION_CONTEXT(3)
GLOBAL_UNCERTAINTY_ASSIGNED_CONTEXT((#490))
GLOBAL_UNIT_ASSIGNED_CONTEXT((#496,#492,#491))
REPRESENTATION_CONTEXT('XHF580E16160D1HZ4A_Basic',
'TOP_LEVEL_ASSEMBLY_PART')
);
#490=UNCERTAINTY_MEASURE_WITH_UNIT(LENGTH_MEASURE(0.0254),#496,
'DISTANCE_ACCURACY_VALUE','Maximum Tolerance applied to model');
#491=(
NAMED_UNIT(*)
SI_UNIT($,.STERADIAN.)
SOLID_ANGLE_UNIT()
);
#492=(
CONVERSION_BASED_UNIT('DEGREE',#494)
NAMED_UNIT(#493)
PLANE_ANGLE_UNIT()
);
#493=DIMENSIONAL_EXPONENTS(0.,0.,0.,0.,0.,0.,0.);
#494=PLANE_ANGLE_MEASURE_WITH_UNIT(PLANE_ANGLE_MEASURE(0.0174532925),#495);
#495=(
NAMED_UNIT(*)
PLANE_ANGLE_UNIT()
SI_UNIT($,.RADIAN.)
);
#496=(
LENGTH_UNIT()
NAMED_UNIT(*)
SI_UNIT(.MILLI.,.METRE.)
);
ENDSEC;
END-ISO-10303-21;
