ISO-10303-21;
HEADER;
/* Generated by software containing ST-Developer
 * from STEP Tools, Inc. (www.steptools.com) 
 */
/* OPTION: using custom schema-name function */

FILE_DESCRIPTION(
/* description */ (''),
/* implementation_level */ '2;1');

FILE_NAME(
/* name */ 'XHF580E12120D1HZ4A_Basic.stp',
/* time_stamp */ '2022-07-12T18:23:44+06:00',
/* author */ (''),
/* organization */ (''),
/* preprocessor_version */ 'ST-DEVELOPER v16.7',
/* originating_system */ 'SIEMENS PLM Software NX 12.0',
/* authorisation */ '');

FILE_SCHEMA (('AUTOMOTIVE_DESIGN { 1 0 10303 214 3 1 1 1 }'));
ENDSEC;

DATA;
#10=CONSTRUCTIVE_GEOMETRY_REPRESENTATION_RELATIONSHIP(
'supplemental geometry','',#34,#11);
#11=CONSTRUCTIVE_GEOMETRY_REPRESENTATION('supplemental geometry',(#274,
#275,#276),#489);
#12=GEOMETRICALLY_BOUNDED_WIREFRAME_SHAPE_REPRESENTATION(
'inpu43DC1522w1ia-None',(#35),#489);
#13=PROPERTY_DEFINITION_REPRESENTATION(#17,#15);
#14=PROPERTY_DEFINITION_REPRESENTATION(#18,#16);
#15=REPRESENTATION('',(#19),#489);
#16=REPRESENTATION('',(#20),#489);
#17=PROPERTY_DEFINITION('pmi validation property','',#25);
#18=PROPERTY_DEFINITION('pmi validation property','',#25);
#19=VALUE_REPRESENTATION_ITEM('number of annotations',COUNT_MEASURE(0.));
#20=VALUE_REPRESENTATION_ITEM('number of views',COUNT_MEASURE(0.));
#21=SHAPE_REPRESENTATION_RELATIONSHIP('None',
'relationship between inpu43DC1522w1ia-None and inpu43DC1522w1ia-None',
#34,#23);
#22=SHAPE_REPRESENTATION_RELATIONSHIP('None',
'relationship between inpu43DC1522w1ia-None and inpu43DC1522w1ia-None',
#34,#12);
#23=ADVANCED_BREP_SHAPE_REPRESENTATION('inpu43DC1522w1ia-None',(#47,#48),
#489);
#24=SHAPE_DEFINITION_REPRESENTATION(#25,#34);
#25=PRODUCT_DEFINITION_SHAPE('','',#26);
#26=PRODUCT_DEFINITION(' ','',#28,#27);
#27=PRODUCT_DEFINITION_CONTEXT('part definition',#33,'design');
#28=PRODUCT_DEFINITION_FORMATION_WITH_SPECIFIED_SOURCE(' ',' ',#30,
 .NOT_KNOWN.);
#29=PRODUCT_RELATED_PRODUCT_CATEGORY('part','',(#30));
#30=PRODUCT('inpu43DC1522w1ia','inpu43DC1522w1ia',' ',(#31));
#31=PRODUCT_CONTEXT(' ',#33,'mechanical');
#32=APPLICATION_PROTOCOL_DEFINITION('international standard',
'automotive_design',2010,#33);
#33=APPLICATION_CONTEXT(
'core data for automotive mechanical design processes');
#34=SHAPE_REPRESENTATION('inpu43DC1522w1ia-None',(#273),#489);
#35=GEOMETRIC_CURVE_SET('None',(#385,#386,#387,#388,#238));
#36=(
BOUNDED_SURFACE()
B_SPLINE_SURFACE(3,3,((#458,#459,#460,#461,#462,#463,#464),(#465,#466,#467,
#468,#469,#470,#471),(#472,#473,#474,#475,#476,#477,#478),(#479,#480,#481,
#482,#483,#484,#485)),.UNSPECIFIED.,.F.,.T.,.F.)
B_SPLINE_SURFACE_WITH_KNOTS((4,4),(1,3,3,3,1),(0.,1.),(-0.5,0.,0.5,1.,1.5),
 .UNSPECIFIED.)
GEOMETRIC_REPRESENTATION_ITEM()
RATIONAL_B_SPLINE_SURFACE(((1.,0.333333333333333,0.333333333333333,1.,0.333333333333333,
0.333333333333333,1.),(0.977283884192713,0.325761294730904,0.325761294730904,
0.977283884192713,0.325761294730904,0.325761294730904,0.977283884192713),
(0.977283884192713,0.325761294730904,0.325761294730904,0.977283884192713,
0.325761294730904,0.325761294730904,0.977283884192713),(1.,0.333333333333333,
0.333333333333333,1.,0.333333333333333,0.333333333333333,1.)))
REPRESENTATION_ITEM('')
SURFACE()
);
#37=SURFACE_STYLE_USAGE(.BOTH.,#39);
#38=SURFACE_STYLE_USAGE(.BOTH.,#40);
#39=SURFACE_SIDE_STYLE('',(#41));
#40=SURFACE_SIDE_STYLE('',(#42));
#41=SURFACE_STYLE_FILL_AREA(#43);
#42=SURFACE_STYLE_FILL_AREA(#44);
#43=FILL_AREA_STYLE('',(#45));
#44=FILL_AREA_STYLE('',(#46));
#45=FILL_AREA_STYLE_COLOUR('',#241);
#46=FILL_AREA_STYLE_COLOUR('',#242);
#47=MANIFOLD_SOLID_BREP('NOCUT',#49);
#48=MANIFOLD_SOLID_BREP('CUT',#50);
#49=CLOSED_SHELL('',(#89,#90,#91,#92,#93,#94,#95,#96,#97,#98,#99,#100,#101));
#50=CLOSED_SHELL('',(#102,#103,#104,#105,#106));
#51=TOROIDAL_SURFACE('',#284,3.25000000000003,0.5);
#52=TOROIDAL_SURFACE('',#292,4.90361257567267,0.3);
#53=TOROIDAL_SURFACE('',#308,4.5,1.5);
#54=CYLINDRICAL_SURFACE('',#282,2.75000000000004);
#55=CYLINDRICAL_SURFACE('',#296,5.85);
#56=CYLINDRICAL_SURFACE('',#300,6.);
#57=CYLINDRICAL_SURFACE('',#304,6.);
#58=CONICAL_SURFACE('',#280,2.55000000000004,45.);
#59=CONICAL_SURFACE('',#288,3.75161489508637,5.99999999999984);
#60=CONICAL_SURFACE('',#290,4.51887581252579,2.19999999999991);
#61=FACE_BOUND('',#119,.T.);
#62=FACE_BOUND('',#120,.T.);
#63=FACE_BOUND('',#121,.T.);
#64=FACE_BOUND('',#122,.T.);
#65=FACE_BOUND('',#123,.T.);
#66=FACE_BOUND('',#124,.T.);
#67=FACE_BOUND('',#125,.T.);
#68=FACE_BOUND('',#126,.T.);
#69=FACE_BOUND('',#127,.T.);
#70=FACE_BOUND('',#128,.T.);
#71=FACE_BOUND('',#129,.T.);
#72=FACE_BOUND('',#130,.T.);
#73=FACE_BOUND('',#131,.T.);
#74=FACE_BOUND('',#132,.T.);
#75=FACE_BOUND('',#133,.T.);
#76=FACE_BOUND('',#134,.T.);
#77=FACE_BOUND('',#135,.T.);
#78=FACE_BOUND('',#136,.T.);
#79=FACE_BOUND('',#137,.T.);
#80=FACE_BOUND('',#138,.T.);
#81=FACE_BOUND('',#139,.T.);
#82=FACE_BOUND('',#140,.T.);
#83=FACE_BOUND('',#142,.T.);
#84=FACE_BOUND('',#143,.T.);
#85=FACE_BOUND('',#145,.T.);
#86=FACE_BOUND('',#146,.T.);
#87=FACE_BOUND('',#147,.T.);
#88=FACE_BOUND('',#148,.T.);
#89=ADVANCED_FACE('',(#114),#107,.F.);
#90=ADVANCED_FACE('',(#61,#62),#58,.T.);
#91=ADVANCED_FACE('',(#63,#64),#54,.T.);
#92=ADVANCED_FACE('',(#65,#66),#51,.F.);
#93=ADVANCED_FACE('',(#67,#68),#108,.F.);
#94=ADVANCED_FACE('',(#69,#70),#59,.T.);
#95=ADVANCED_FACE('',(#71,#72),#60,.T.);
#96=ADVANCED_FACE('',(#73,#74),#52,.F.);
#97=ADVANCED_FACE('',(#75,#76),#109,.F.);
#98=ADVANCED_FACE('',(#77,#78),#55,.T.);
#99=ADVANCED_FACE('',(#79,#80),#110,.T.);
#100=ADVANCED_FACE('',(#81,#82),#56,.T.);
#101=ADVANCED_FACE('',(#115),#111,.F.);
#102=ADVANCED_FACE('',(#83,#84),#57,.T.);
#103=ADVANCED_FACE('',(#116),#112,.F.);
#104=ADVANCED_FACE('',(#85,#86),#36,.T.);
#105=ADVANCED_FACE('',(#87,#88),#53,.T.);
#106=ADVANCED_FACE('',(#117),#113,.F.);
#107=PLANE('',#278);
#108=PLANE('',#286);
#109=PLANE('',#294);
#110=PLANE('',#298);
#111=PLANE('',#301);
#112=PLANE('',#305);
#113=PLANE('',#309);
#114=FACE_OUTER_BOUND('',#118,.T.);
#115=FACE_OUTER_BOUND('',#141,.T.);
#116=FACE_OUTER_BOUND('',#144,.T.);
#117=FACE_OUTER_BOUND('',#149,.T.);
#118=EDGE_LOOP('',(#150));
#119=EDGE_LOOP('',(#151));
#120=EDGE_LOOP('',(#152));
#121=EDGE_LOOP('',(#153));
#122=EDGE_LOOP('',(#154));
#123=EDGE_LOOP('',(#155));
#124=EDGE_LOOP('',(#156));
#125=EDGE_LOOP('',(#157));
#126=EDGE_LOOP('',(#158));
#127=EDGE_LOOP('',(#159));
#128=EDGE_LOOP('',(#160));
#129=EDGE_LOOP('',(#161));
#130=EDGE_LOOP('',(#162));
#131=EDGE_LOOP('',(#163));
#132=EDGE_LOOP('',(#164));
#133=EDGE_LOOP('',(#165));
#134=EDGE_LOOP('',(#166));
#135=EDGE_LOOP('',(#167));
#136=EDGE_LOOP('',(#168));
#137=EDGE_LOOP('',(#169));
#138=EDGE_LOOP('',(#170));
#139=EDGE_LOOP('',(#171));
#140=EDGE_LOOP('',(#172));
#141=EDGE_LOOP('',(#173));
#142=EDGE_LOOP('',(#174));
#143=EDGE_LOOP('',(#175));
#144=EDGE_LOOP('',(#176));
#145=EDGE_LOOP('',(#177));
#146=EDGE_LOOP('',(#178));
#147=EDGE_LOOP('',(#179));
#148=EDGE_LOOP('',(#180));
#149=EDGE_LOOP('',(#181));
#150=ORIENTED_EDGE('',*,*,#198,.F.);
#151=ORIENTED_EDGE('',*,*,#199,.F.);
#152=ORIENTED_EDGE('',*,*,#198,.T.);
#153=ORIENTED_EDGE('',*,*,#200,.F.);
#154=ORIENTED_EDGE('',*,*,#199,.T.);
#155=ORIENTED_EDGE('',*,*,#201,.F.);
#156=ORIENTED_EDGE('',*,*,#200,.T.);
#157=ORIENTED_EDGE('',*,*,#202,.F.);
#158=ORIENTED_EDGE('',*,*,#201,.T.);
#159=ORIENTED_EDGE('',*,*,#203,.F.);
#160=ORIENTED_EDGE('',*,*,#202,.T.);
#161=ORIENTED_EDGE('',*,*,#204,.F.);
#162=ORIENTED_EDGE('',*,*,#203,.T.);
#163=ORIENTED_EDGE('',*,*,#205,.F.);
#164=ORIENTED_EDGE('',*,*,#204,.T.);
#165=ORIENTED_EDGE('',*,*,#206,.T.);
#166=ORIENTED_EDGE('',*,*,#205,.T.);
#167=ORIENTED_EDGE('',*,*,#207,.T.);
#168=ORIENTED_EDGE('',*,*,#206,.F.);
#169=ORIENTED_EDGE('',*,*,#208,.F.);
#170=ORIENTED_EDGE('',*,*,#207,.F.);
#171=ORIENTED_EDGE('',*,*,#209,.F.);
#172=ORIENTED_EDGE('',*,*,#208,.T.);
#173=ORIENTED_EDGE('',*,*,#209,.T.);
#174=ORIENTED_EDGE('',*,*,#210,.F.);
#175=ORIENTED_EDGE('',*,*,#211,.T.);
#176=ORIENTED_EDGE('',*,*,#210,.T.);
#177=ORIENTED_EDGE('',*,*,#212,.T.);
#178=ORIENTED_EDGE('',*,*,#213,.T.);
#179=ORIENTED_EDGE('',*,*,#213,.F.);
#180=ORIENTED_EDGE('',*,*,#211,.F.);
#181=ORIENTED_EDGE('',*,*,#212,.F.);
#182=VERTEX_POINT('',#412);
#183=VERTEX_POINT('',#415);
#184=VERTEX_POINT('',#418);
#185=VERTEX_POINT('',#421);
#186=VERTEX_POINT('',#424);
#187=VERTEX_POINT('',#427);
#188=VERTEX_POINT('',#430);
#189=VERTEX_POINT('',#433);
#190=VERTEX_POINT('',#436);
#191=VERTEX_POINT('',#439);
#192=VERTEX_POINT('',#442);
#193=VERTEX_POINT('',#445);
#194=VERTEX_POINT('',#449);
#195=VERTEX_POINT('',#451);
#196=VERTEX_POINT('',#455);
#197=VERTEX_POINT('',#457);
#198=EDGE_CURVE('',#182,#182,#214,.T.);
#199=EDGE_CURVE('',#183,#183,#215,.T.);
#200=EDGE_CURVE('',#184,#184,#216,.T.);
#201=EDGE_CURVE('',#185,#185,#217,.T.);
#202=EDGE_CURVE('',#186,#186,#218,.T.);
#203=EDGE_CURVE('',#187,#187,#219,.T.);
#204=EDGE_CURVE('',#188,#188,#220,.T.);
#205=EDGE_CURVE('',#189,#189,#221,.T.);
#206=EDGE_CURVE('',#190,#190,#222,.T.);
#207=EDGE_CURVE('',#191,#191,#223,.T.);
#208=EDGE_CURVE('',#192,#192,#224,.T.);
#209=EDGE_CURVE('',#193,#193,#225,.T.);
#210=EDGE_CURVE('',#194,#194,#226,.T.);
#211=EDGE_CURVE('',#195,#195,#227,.T.);
#212=EDGE_CURVE('',#196,#196,#228,.T.);
#213=EDGE_CURVE('',#197,#197,#229,.T.);
#214=CIRCLE('',#277,2.55000000000004);
#215=CIRCLE('',#279,2.75000000000004);
#216=CIRCLE('',#281,2.75000000000003);
#217=CIRCLE('',#283,3.25000000000003);
#218=CIRCLE('',#285,3.75161489508637);
#219=CIRCLE('',#287,4.51887581252579);
#220=CIRCLE('',#289,4.60383370074949);
#221=CIRCLE('',#291,4.90361257567267);
#222=CIRCLE('',#293,5.85);
#223=CIRCLE('',#295,5.85);
#224=CIRCLE('',#297,6.);
#225=CIRCLE('',#299,6.);
#226=CIRCLE('',#302,6.);
#227=CIRCLE('',#303,6.);
#228=CIRCLE('',#306,2.25);
#229=CIRCLE('',#307,5.25);
#230=CURVE_STYLE('',#234,POSITIVE_LENGTH_MEASURE(0.18),#272);
#231=CURVE_STYLE('',#235,POSITIVE_LENGTH_MEASURE(0.18),#240);
#232=CURVE_STYLE('',#236,POSITIVE_LENGTH_MEASURE(0.18),#240);
#233=CURVE_STYLE('',#237,POSITIVE_LENGTH_MEASURE(0.18),#240);
#234=DRAUGHTING_PRE_DEFINED_CURVE_FONT('continuous');
#235=DRAUGHTING_PRE_DEFINED_CURVE_FONT('continuous');
#236=DRAUGHTING_PRE_DEFINED_CURVE_FONT('continuous');
#237=DRAUGHTING_PRE_DEFINED_CURVE_FONT('continuous');
#238=TRIMMED_CURVE('CUTTING PART LINE',#239,(PARAMETER_VALUE(0.)),(
PARAMETER_VALUE(1.)),.T.,.PARAMETER.);
#239=(
BOUNDED_CURVE()
B_SPLINE_CURVE(3,(#389,#390,#391,#392,#393,#394,#395,#396,#397,#398,#399,
#400,#401,#402,#403,#404,#405,#406,#407),.UNSPECIFIED.,.T.,.F.)
B_SPLINE_CURVE_WITH_KNOTS((4,3,3,3,3,3,4),(0.,0.22731406122077,0.290490616654338,
0.409617472011899,0.493957833153056,0.775092370290247,1.),.UNSPECIFIED.)
CURVE()
GEOMETRIC_REPRESENTATION_ITEM()
RATIONAL_B_SPLINE_CURVE((1.,1.,1.,1.,0.910683602522964,0.910683602522964,
1.,0.977283884192712,0.977283884192712,1.,1.,1.,1.,1.,1.,1.,1.,1.,1.))
REPRESENTATION_ITEM('CUTTING PART LINE')
);
#240=COLOUR_RGB('Medium Maroon',0.6,0.4,0.4);
#241=COLOUR_RGB('Medium Gray',0.490196078431373,0.490196078431373,0.490196078431373);
#242=COLOUR_RGB('Light Gray',0.8,0.8,0.8);
#243=PRESENTATION_LAYER_ASSIGNMENT('1','Layer 1',(#385,#386,#387,#388,#238,
#274,#275,#276,#47,#48));
#244=STYLED_ITEM('',(#254),#385);
#245=STYLED_ITEM('',(#255),#386);
#246=STYLED_ITEM('',(#256),#387);
#247=STYLED_ITEM('',(#257),#388);
#248=STYLED_ITEM('',(#258),#238);
#249=STYLED_ITEM('',(#259),#274);
#250=STYLED_ITEM('',(#260),#275);
#251=STYLED_ITEM('',(#261),#276);
#252=STYLED_ITEM('',(#262),#47);
#253=STYLED_ITEM('',(#263),#48);
#254=PRESENTATION_STYLE_ASSIGNMENT((#264));
#255=PRESENTATION_STYLE_ASSIGNMENT((#265));
#256=PRESENTATION_STYLE_ASSIGNMENT((#266));
#257=PRESENTATION_STYLE_ASSIGNMENT((#267));
#258=PRESENTATION_STYLE_ASSIGNMENT((#230));
#259=PRESENTATION_STYLE_ASSIGNMENT((#231));
#260=PRESENTATION_STYLE_ASSIGNMENT((#232));
#261=PRESENTATION_STYLE_ASSIGNMENT((#233));
#262=PRESENTATION_STYLE_ASSIGNMENT((#37));
#263=PRESENTATION_STYLE_ASSIGNMENT((#38));
#264=POINT_STYLE('',#268,POSITIVE_LENGTH_MEASURE(3.),#272);
#265=POINT_STYLE('',#269,POSITIVE_LENGTH_MEASURE(3.),#240);
#266=POINT_STYLE('',#270,POSITIVE_LENGTH_MEASURE(3.),#240);
#267=POINT_STYLE('',#271,POSITIVE_LENGTH_MEASURE(3.),#240);
#268=PRE_DEFINED_POINT_MARKER_SYMBOL('plus');
#269=PRE_DEFINED_POINT_MARKER_SYMBOL('plus');
#270=PRE_DEFINED_POINT_MARKER_SYMBOL('plus');
#271=PRE_DEFINED_POINT_MARKER_SYMBOL('plus');
#272=DRAUGHTING_PRE_DEFINED_COLOUR('blue');
#273=AXIS2_PLACEMENT_3D('',#384,#310,#311);
#274=AXIS2_PLACEMENT_3D('MCS',#408,#312,#313);
#275=AXIS2_PLACEMENT_3D('CIP',#409,#314,#315);
#276=AXIS2_PLACEMENT_3D('PCS',#410,#316,#317);
#277=AXIS2_PLACEMENT_3D('',#411,#318,#319);
#278=AXIS2_PLACEMENT_3D('',#413,#320,#321);
#279=AXIS2_PLACEMENT_3D('',#414,#322,#323);
#280=AXIS2_PLACEMENT_3D('',#416,#324,#325);
#281=AXIS2_PLACEMENT_3D('',#417,#326,#327);
#282=AXIS2_PLACEMENT_3D('',#419,#328,#329);
#283=AXIS2_PLACEMENT_3D('',#420,#330,#331);
#284=AXIS2_PLACEMENT_3D('',#422,#332,#333);
#285=AXIS2_PLACEMENT_3D('',#423,#334,#335);
#286=AXIS2_PLACEMENT_3D('',#425,#336,#337);
#287=AXIS2_PLACEMENT_3D('',#426,#338,#339);
#288=AXIS2_PLACEMENT_3D('',#428,#340,#341);
#289=AXIS2_PLACEMENT_3D('',#429,#342,#343);
#290=AXIS2_PLACEMENT_3D('',#431,#344,#345);
#291=AXIS2_PLACEMENT_3D('',#432,#346,#347);
#292=AXIS2_PLACEMENT_3D('',#434,#348,#349);
#293=AXIS2_PLACEMENT_3D('',#435,#350,#351);
#294=AXIS2_PLACEMENT_3D('',#437,#352,#353);
#295=AXIS2_PLACEMENT_3D('',#438,#354,#355);
#296=AXIS2_PLACEMENT_3D('',#440,#356,#357);
#297=AXIS2_PLACEMENT_3D('',#441,#358,#359);
#298=AXIS2_PLACEMENT_3D('',#443,#360,#361);
#299=AXIS2_PLACEMENT_3D('',#444,#362,#363);
#300=AXIS2_PLACEMENT_3D('',#446,#364,#365);
#301=AXIS2_PLACEMENT_3D('',#447,#366,#367);
#302=AXIS2_PLACEMENT_3D('',#448,#368,#369);
#303=AXIS2_PLACEMENT_3D('',#450,#370,#371);
#304=AXIS2_PLACEMENT_3D('',#452,#372,#373);
#305=AXIS2_PLACEMENT_3D('',#453,#374,#375);
#306=AXIS2_PLACEMENT_3D('',#454,#376,#377);
#307=AXIS2_PLACEMENT_3D('',#456,#378,#379);
#308=AXIS2_PLACEMENT_3D('',#486,#380,#381);
#309=AXIS2_PLACEMENT_3D('',#487,#382,#383);
#310=DIRECTION('',(0.,0.,1.));
#311=DIRECTION('',(1.,0.,0.));
#312=DIRECTION('',(0.,0.,1.));
#313=DIRECTION('',(1.,0.,0.));
#314=DIRECTION('',(0.,0.,1.));
#315=DIRECTION('',(1.,0.,0.));
#316=DIRECTION('',(0.,0.,1.));
#317=DIRECTION('',(1.,0.,0.));
#318=DIRECTION('',(2.38044941126248E-31,3.02535774210355E-15,-1.));
#319=DIRECTION('',(0.,-1.,-2.7211348642773E-15));
#320=DIRECTION('',(2.38044941126248E-31,3.02535774210355E-15,-1.));
#321=DIRECTION('',(0.,1.,3.02535774210355E-15));
#322=DIRECTION('',(2.38044941126248E-31,3.02535774210355E-15,-1.));
#323=DIRECTION('',(0.,-1.,-3.15404268359415E-15));
#324=DIRECTION('',(2.38044941126248E-31,3.02535774210355E-15,-1.));
#325=DIRECTION('',(-2.79819843370682E-47,1.,3.02285363576029E-15));
#326=DIRECTION('',(2.38044941126248E-31,3.02535774210355E-15,-1.));
#327=DIRECTION('',(0.,-1.,-3.15404268359416E-15));
#328=DIRECTION('',(2.38044941126248E-31,3.02535774210355E-15,-1.));
#329=DIRECTION('',(0.,1.,3.02535774210355E-15));
#330=DIRECTION('',(2.38044941126248E-31,3.02535774210355E-15,-1.));
#331=DIRECTION('',(0.,-1.,-3.20256641718792E-15));
#332=DIRECTION('',(2.38044941126248E-31,3.02535774210355E-15,-1.));
#333=DIRECTION('',(9.12303687711462E-47,1.,3.23815048849001E-15));
#334=DIRECTION('',(2.38044941126248E-31,3.02535774210355E-15,-1.));
#335=DIRECTION('',(-9.11910983560387E-47,-1.,-3.23675661586211E-15));
#336=DIRECTION('',(2.38044941126248E-31,3.02535774210355E-15,-1.));
#337=DIRECTION('',(0.,1.,3.02535774210355E-15));
#338=DIRECTION('',(2.38044941126248E-31,3.02535774210355E-15,-1.));
#339=DIRECTION('',(-1.89269354306829E-47,-1.,-3.07107085557582E-15));
#340=DIRECTION('',(2.38044941126248E-31,3.02535774210355E-15,-1.));
#341=DIRECTION('',(-2.76567788042787E-46,1.,3.42623337913591E-15));
#342=DIRECTION('',(2.38044941126248E-31,3.02535774210355E-15,-1.));
#343=DIRECTION('',(0.,-1.,-3.02617314656058E-15));
#344=DIRECTION('',(2.38044941126248E-31,3.02535774210355E-15,-1.));
#345=DIRECTION('',(5.05979530946905E-46,1.,1.58583661746398E-15));
#346=DIRECTION('',(2.38044941126248E-31,3.02535774210355E-15,-1.));
#347=DIRECTION('',(0.,-1.,-3.02535774210355E-15));
#348=DIRECTION('',(2.38044941126248E-31,3.02535774210355E-15,-1.));
#349=DIRECTION('',(0.,1.,3.02115718117381E-15));
#350=DIRECTION('',(0.,0.,1.));
#351=DIRECTION('',(-1.,0.,0.));
#352=DIRECTION('',(0.,0.,-1.));
#353=DIRECTION('',(-1.,0.,0.));
#354=DIRECTION('',(0.,0.,1.));
#355=DIRECTION('',(-1.,0.,0.));
#356=DIRECTION('',(0.,0.,1.));
#357=DIRECTION('',(1.,0.,0.));
#358=DIRECTION('',(0.,0.,-1.));
#359=DIRECTION('',(-1.,0.,0.));
#360=DIRECTION('',(0.,0.,1.));
#361=DIRECTION('',(1.,0.,0.));
#362=DIRECTION('',(0.,0.,-1.));
#363=DIRECTION('',(-1.,0.,0.));
#364=DIRECTION('',(0.,0.,1.));
#365=DIRECTION('',(1.,0.,0.));
#366=DIRECTION('',(0.,0.,1.));
#367=DIRECTION('',(1.,0.,0.));
#368=DIRECTION('',(0.,0.,1.));
#369=DIRECTION('',(-1.,0.,0.));
#370=DIRECTION('',(0.,-1.36642833800019E-16,1.));
#371=DIRECTION('',(0.,1.,0.));
#372=DIRECTION('',(0.,0.,1.));
#373=DIRECTION('',(1.,0.,0.));
#374=DIRECTION('',(0.,0.,-1.));
#375=DIRECTION('',(-1.,0.,0.));
#376=DIRECTION('',(0.,-1.36642833800019E-16,1.));
#377=DIRECTION('',(0.,1.,0.));
#378=DIRECTION('',(0.,1.36642833800019E-16,-1.));
#379=DIRECTION('',(0.,1.,0.));
#380=DIRECTION('',(0.,-1.36642833800019E-16,1.));
#381=DIRECTION('',(0.,-1.,0.));
#382=DIRECTION('',(0.,0.,1.));
#383=DIRECTION('',(1.,0.,0.));
#384=CARTESIAN_POINT('',(0.,0.,0.));
#385=CARTESIAN_POINT('CRP',(-6.,0.,-14.5));
#386=CARTESIAN_POINT('',(0.,0.,0.));
#387=CARTESIAN_POINT('',(0.,-3.10862446895044E-15,-14.5));
#388=CARTESIAN_POINT('',(0.,0.,0.));
#389=CARTESIAN_POINT('',(-6.,-3.10862446895044E-15,-7.));
#390=CARTESIAN_POINT('',(-6.,-3.10862446895044E-15,-8.79903810567667));
#391=CARTESIAN_POINT('',(-6.,-3.10862446895044E-15,-10.5980762113533));
#392=CARTESIAN_POINT('',(-6.,-3.10862446895044E-15,-12.39711431703));
#393=CARTESIAN_POINT('',(-6.,-3.10862446895044E-15,-12.9461524227066));
#394=CARTESIAN_POINT('',(-5.72548094716169,3.46944695195361E-15,-13.4216333698683));
#395=CARTESIAN_POINT('',(-5.25000000000004,3.46944695195361E-15,-13.6961524227066));
#396=CARTESIAN_POINT('',(-4.33258440902397,3.46944695195361E-15,-14.2258225611155));
#397=CARTESIAN_POINT('',(-3.3093402768176,4.77048955893622E-15,-14.5));
#398=CARTESIAN_POINT('',(-2.24999999999999,4.77048955893622E-15,-14.5));
#399=CARTESIAN_POINT('',(-1.49999999999999,4.77048955893622E-15,-14.5));
#400=CARTESIAN_POINT('',(-0.749999999999996,-3.10862446895044E-15,-14.5));
#401=CARTESIAN_POINT('',(0.,-3.10862446895044E-15,-14.5));
#402=CARTESIAN_POINT('',(0.,-3.10862446895044E-15,-12.));
#403=CARTESIAN_POINT('',(0.,-3.10862446895044E-15,-9.5));
#404=CARTESIAN_POINT('',(0.,-3.10862446895044E-15,-7.));
#405=CARTESIAN_POINT('',(-2.,-3.46944695195361E-15,-7.));
#406=CARTESIAN_POINT('',(-4.,-3.46944695195361E-15,-7.));
#407=CARTESIAN_POINT('',(-6.,-3.46944695195361E-15,-7.));
#408=CARTESIAN_POINT('',(0.,0.,0.));
#409=CARTESIAN_POINT('',(0.,-3.10862446895044E-15,-14.5));
#410=CARTESIAN_POINT('',(0.,0.,0.));
#411=CARTESIAN_POINT('',(-3.28502018754223E-30,-4.17499368410289E-14,13.8));
#412=CARTESIAN_POINT('',(-3.28502018754223E-30,-2.55000000000009,13.8));
#413=CARTESIAN_POINT('',(1.33116030735544E-45,1.69179656697802E-29,13.8));
#414=CARTESIAN_POINT('',(-3.23741119931698E-30,-4.11448652926082E-14,13.6));
#415=CARTESIAN_POINT('',(-3.23741119931698E-30,-2.75000000000009,13.6));
#416=CARTESIAN_POINT('',(-3.28502018754223E-30,-4.17499368410289E-14,13.8));
#417=CARTESIAN_POINT('',(-2.45186289360036E-30,-3.11611847436665E-14,10.3));
#418=CARTESIAN_POINT('',(-2.45186289360036E-30,-2.75000000000006,10.3));
#419=CARTESIAN_POINT('',(0.,0.,0.));
#420=CARTESIAN_POINT('',(-2.33284042303723E-30,-2.96485058726147E-14,9.79999999999999));
#421=CARTESIAN_POINT('',(-2.33284042303723E-30,-3.25000000000006,9.79999999999998));
#422=CARTESIAN_POINT('',(-2.45186289360036E-30,-3.12250225675825E-14,10.3));
#423=CARTESIAN_POINT('',(-2.33284042303723E-30,-2.96485058726147E-14,9.79999999999999));
#424=CARTESIAN_POINT('',(-2.33284042303723E-30,-3.7516148950864,9.79999999999998));
#425=CARTESIAN_POINT('',(5.93566424500323E-46,3.25,9.8));
#426=CARTESIAN_POINT('',(-5.95112352815618E-31,-7.56339435525883E-15,2.49999999999999));
#427=CARTESIAN_POINT('',(-5.95112352815618E-31,-4.5188758125258,2.49999999999997));
#428=CARTESIAN_POINT('',(-2.33284042303723E-30,-2.96485058726147E-14,9.79999999999999));
#429=CARTESIAN_POINT('',(-6.86720752116098E-32,-8.72766266003424E-16,0.28848365727373));
#430=CARTESIAN_POINT('',(-6.86720752116098E-32,-4.60383370074949,0.288483657273716));
#431=CARTESIAN_POINT('',(-5.95112352815618E-31,-7.56339435525883E-15,2.49999999999999));
#432=CARTESIAN_POINT('',(3.54434453219609E-45,4.50457385081536E-29,-1.48893923787119E-14));
#433=CARTESIAN_POINT('',(3.54434453219609E-45,-4.90361257567267,-2.97245746487995E-14));
#434=CARTESIAN_POINT('',(-7.14134823378709E-32,-8.67361737988404E-16,0.299999999999985));
#435=CARTESIAN_POINT('',(0.,0.,0.));
#436=CARTESIAN_POINT('',(-5.85,0.,0.));
#437=CARTESIAN_POINT('',(0.,-5.85,0.));
#438=CARTESIAN_POINT('',(0.,0.,-7.));
#439=CARTESIAN_POINT('',(-5.85,0.,-7.));
#440=CARTESIAN_POINT('',(0.,0.,0.));
#441=CARTESIAN_POINT('',(0.,0.,-7.));
#442=CARTESIAN_POINT('',(-6.,0.,-7.));
#443=CARTESIAN_POINT('',(0.,0.,-7.));
#444=CARTESIAN_POINT('',(0.,0.,-7.001));
#445=CARTESIAN_POINT('',(-6.,0.,-7.001));
#446=CARTESIAN_POINT('',(0.,0.,-7.001));
#447=CARTESIAN_POINT('',(0.,0.,-7.001));
#448=CARTESIAN_POINT('',(0.,0.,-7.));
#449=CARTESIAN_POINT('',(-6.,0.,-7.));
#450=CARTESIAN_POINT('',(0.,2.82128021007192E-15,-12.39711431703));
#451=CARTESIAN_POINT('',(0.,6.,-12.39711431703));
#452=CARTESIAN_POINT('',(0.,0.,0.));
#453=CARTESIAN_POINT('',(0.,-6.00000000000001,-7.));
#454=CARTESIAN_POINT('',(0.,3.10862446895044E-15,-14.5));
#455=CARTESIAN_POINT('',(0.,2.25,-14.5));
#456=CARTESIAN_POINT('',(0.,2.99878445804579E-15,-13.6961524227066));
#457=CARTESIAN_POINT('',(0.,5.25,-13.6961524227066));
#458=CARTESIAN_POINT('',(-5.25000000000001,4.77048955893622E-15,-13.6961524227066));
#459=CARTESIAN_POINT('',(-5.25000000000001,-10.5,-13.6961524227066));
#460=CARTESIAN_POINT('',(5.25000000000001,-10.5,-13.6961524227066));
#461=CARTESIAN_POINT('',(5.25000000000001,4.77048955893622E-15,-13.6961524227066));
#462=CARTESIAN_POINT('',(5.25000000000001,10.5,-13.6961524227066));
#463=CARTESIAN_POINT('',(-5.25000000000001,10.5,-13.6961524227066));
#464=CARTESIAN_POINT('',(-5.25000000000001,4.77048955893622E-15,-13.6961524227066));
#465=CARTESIAN_POINT('',(-4.33258440902393,4.77048955893622E-15,-14.2258225611154));
#466=CARTESIAN_POINT('',(-4.33258440902393,-8.66516881804785,-14.2258225611154));
#467=CARTESIAN_POINT('',(4.33258440902393,-8.66516881804785,-14.2258225611154));
#468=CARTESIAN_POINT('',(4.33258440902393,4.77048955893622E-15,-14.2258225611154));
#469=CARTESIAN_POINT('',(4.33258440902393,8.66516881804786,-14.2258225611154));
#470=CARTESIAN_POINT('',(-4.33258440902393,8.66516881804786,-14.2258225611154));
#471=CARTESIAN_POINT('',(-4.33258440902393,4.77048955893622E-15,-14.2258225611154));
#472=CARTESIAN_POINT('',(-3.3093402768176,4.77048955893622E-15,-14.5));
#473=CARTESIAN_POINT('',(-3.3093402768176,-6.61868055363519,-14.5));
#474=CARTESIAN_POINT('',(3.3093402768176,-6.61868055363519,-14.5));
#475=CARTESIAN_POINT('',(3.3093402768176,4.77048955893622E-15,-14.5));
#476=CARTESIAN_POINT('',(3.3093402768176,6.6186805536352,-14.5));
#477=CARTESIAN_POINT('',(-3.3093402768176,6.6186805536352,-14.5));
#478=CARTESIAN_POINT('',(-3.3093402768176,4.77048955893622E-15,-14.5));
#479=CARTESIAN_POINT('',(-2.25,4.77048955893622E-15,-14.5));
#480=CARTESIAN_POINT('',(-2.25,-4.49999999999999,-14.5));
#481=CARTESIAN_POINT('',(2.25,-4.49999999999999,-14.5));
#482=CARTESIAN_POINT('',(2.25,4.77048955893622E-15,-14.5));
#483=CARTESIAN_POINT('',(2.25,4.5,-14.5));
#484=CARTESIAN_POINT('',(-2.25,4.5,-14.5));
#485=CARTESIAN_POINT('',(-2.25,4.77048955893622E-15,-14.5));
#486=CARTESIAN_POINT('',(0.,3.46944695195361E-15,-12.39711431703));
#487=CARTESIAN_POINT('',(0.,2.66453525910038E-15,-14.5));
#488=MECHANICAL_DESIGN_GEOMETRIC_PRESENTATION_REPRESENTATION('',(#244,#245,
#246,#247,#248,#249,#250,#251,#252,#253),#489);
#489=(
GEOMETRIC_REPRESENTATION_CONTEXT(3)
GLOBAL_UNCERTAINTY_ASSIGNED_CONTEXT((#490))
GLOBAL_UNIT_ASSIGNED_CONTEXT((#496,#492,#491))
REPRESENTATION_CONTEXT('XHF580E12120D1HZ4A_Basic',
'TOP_LEVEL_ASSEMBLY_PART')
);
#490=UNCERTAINTY_MEASURE_WITH_UNIT(LENGTH_MEASURE(0.0254),#496,
'DISTANCE_ACCURACY_VALUE','Maximum Tolerance applied to model');
#491=(
NAMED_UNIT(*)
SI_UNIT($,.STERADIAN.)
SOLID_ANGLE_UNIT()
);
#492=(
CONVERSION_BASED_UNIT('DEGREE',#494)
NAMED_UNIT(#493)
PLANE_ANGLE_UNIT()
);
#493=DIMENSIONAL_EXPONENTS(0.,0.,0.,0.,0.,0.,0.);
#494=PLANE_ANGLE_MEASURE_WITH_UNIT(PLANE_ANGLE_MEASURE(0.0174532925),#495);
#495=(
NAMED_UNIT(*)
PLANE_ANGLE_UNIT()
SI_UNIT($,.RADIAN.)
);
#496=(
LENGTH_UNIT()
NAMED_UNIT(*)
SI_UNIT(.MILLI.,.METRE.)
);
ENDSEC;
END-ISO-10303-21;
