ISO-10303-21;
HEADER;
/* Generated by software containing ST-Developer
 * from STEP Tools, Inc. (www.steptools.com) 
 */
/* OPTION: using custom schema-name function */

FILE_DESCRIPTION(
/* description */ (''),
/* implementation_level */ '2;1');

FILE_NAME(
/* name */ 'XHF580E10100D1HZ4A_Basic.stp',
/* time_stamp */ '2022-07-12T15:38:05+05:00',
/* author */ (''),
/* organization */ (''),
/* preprocessor_version */ 'ST-DEVELOPER v16.7',
/* originating_system */ 'SIEMENS PLM Software NX 12.0',
/* authorisation */ '');

FILE_SCHEMA (('AUTOMOTIVE_DESIGN { 1 0 10303 214 3 1 1 1 }'));
ENDSEC;

DATA;
#10=CONSTRUCTIVE_GEOMETRY_REPRESENTATION_RELATIONSHIP(
'supplemental geometry','',#34,#11);
#11=CONSTRUCTIVE_GEOMETRY_REPRESENTATION('supplemental geometry',(#274,
#275,#276),#485);
#12=GEOMETRICALLY_BOUNDED_WIREFRAME_SHAPE_REPRESENTATION(
'inpu43DC1522w1ec-None',(#35),#485);
#13=PROPERTY_DEFINITION_REPRESENTATION(#17,#15);
#14=PROPERTY_DEFINITION_REPRESENTATION(#18,#16);
#15=REPRESENTATION('',(#19),#485);
#16=REPRESENTATION('',(#20),#485);
#17=PROPERTY_DEFINITION('pmi validation property','',#25);
#18=PROPERTY_DEFINITION('pmi validation property','',#25);
#19=VALUE_REPRESENTATION_ITEM('number of annotations',COUNT_MEASURE(0.));
#20=VALUE_REPRESENTATION_ITEM('number of views',COUNT_MEASURE(0.));
#21=SHAPE_REPRESENTATION_RELATIONSHIP('None',
'relationship between inpu43DC1522w1ec-None and inpu43DC1522w1ec-None',
#34,#23);
#22=SHAPE_REPRESENTATION_RELATIONSHIP('None',
'relationship between inpu43DC1522w1ec-None and inpu43DC1522w1ec-None',
#34,#12);
#23=ADVANCED_BREP_SHAPE_REPRESENTATION('inpu43DC1522w1ec-None',(#49,#50),
#485);
#24=SHAPE_DEFINITION_REPRESENTATION(#25,#34);
#25=PRODUCT_DEFINITION_SHAPE('','',#26);
#26=PRODUCT_DEFINITION(' ','',#28,#27);
#27=PRODUCT_DEFINITION_CONTEXT('part definition',#33,'design');
#28=PRODUCT_DEFINITION_FORMATION_WITH_SPECIFIED_SOURCE(' ',' ',#30,
 .NOT_KNOWN.);
#29=PRODUCT_RELATED_PRODUCT_CATEGORY('part','',(#30));
#30=PRODUCT('inpu43DC1522w1ec','inpu43DC1522w1ec',' ',(#31));
#31=PRODUCT_CONTEXT(' ',#33,'mechanical');
#32=APPLICATION_PROTOCOL_DEFINITION('international standard',
'automotive_design',2010,#33);
#33=APPLICATION_CONTEXT(
'core data for automotive mechanical design processes');
#34=SHAPE_REPRESENTATION('inpu43DC1522w1ec-None',(#273),#485);
#35=GEOMETRIC_CURVE_SET('None',(#385,#386,#387,#388,#238));
#36=CONICAL_SURFACE('',#288,2.,44.9999999999993);
#37=CONICAL_SURFACE('',#296,2.87882629506549,6.);
#38=CONICAL_SURFACE('',#298,3.46741001255328,2.20000000000004);
#39=SURFACE_STYLE_USAGE(.BOTH.,#41);
#40=SURFACE_STYLE_USAGE(.BOTH.,#42);
#41=SURFACE_SIDE_STYLE('',(#43));
#42=SURFACE_SIDE_STYLE('',(#44));
#43=SURFACE_STYLE_FILL_AREA(#45);
#44=SURFACE_STYLE_FILL_AREA(#46);
#45=FILL_AREA_STYLE('',(#47));
#46=FILL_AREA_STYLE('',(#48));
#47=FILL_AREA_STYLE_COLOUR('',#241);
#48=FILL_AREA_STYLE_COLOUR('',#242);
#49=MANIFOLD_SOLID_BREP('CUT',#51);
#50=MANIFOLD_SOLID_BREP('NOCUT',#52);
#51=CLOSED_SHELL('',(#68,#69,#70,#71,#72));
#52=CLOSED_SHELL('',(#73,#74,#75,#76,#77,#78,#79,#80,#81,#82,#83,#84,#85));
#53=TOROIDAL_SURFACE('',#283,3.49999999999997,1.5);
#54=TOROIDAL_SURFACE('',#292,2.7,0.500000000000001);
#55=TOROIDAL_SURFACE('',#300,3.83678032570705,0.3);
#56=(
BOUNDED_SURFACE()
B_SPLINE_SURFACE(3,3,((#417,#418,#419,#420,#421,#422,#423),(#424,#425,#426,
#427,#428,#429,#430),(#431,#432,#433,#434,#435,#436,#437),(#438,#439,#440,
#441,#442,#443,#444)),.UNSPECIFIED.,.F.,.T.,.F.)
B_SPLINE_SURFACE_WITH_KNOTS((4,4),(1,3,3,3,1),(0.,1.),(-0.5,0.,0.5,1.,1.5),
 .UNSPECIFIED.)
GEOMETRIC_REPRESENTATION_ITEM()
RATIONAL_B_SPLINE_SURFACE(((1.,0.333333333333333,0.333333333333333,1.,0.333333333333333,
0.333333333333333,1.),(0.975831740666829,0.325277246888943,0.325277246888943,
0.975831740666829,0.325277246888943,0.325277246888943,0.975831740666829),
(0.975831740666829,0.325277246888943,0.325277246888943,0.975831740666829,
0.325277246888943,0.325277246888943,0.975831740666829),(1.,0.333333333333333,
0.333333333333333,1.,0.333333333333333,0.333333333333333,1.)))
REPRESENTATION_ITEM('')
SURFACE()
);
#57=PLANE('',#280);
#58=PLANE('',#284);
#59=PLANE('',#286);
#60=PLANE('',#294);
#61=PLANE('',#304);
#62=PLANE('',#308);
#63=PLANE('',#309);
#64=FACE_OUTER_BOUND('',#120,.T.);
#65=FACE_OUTER_BOUND('',#125,.T.);
#66=FACE_OUTER_BOUND('',#126,.T.);
#67=FACE_OUTER_BOUND('',#149,.T.);
#68=ADVANCED_FACE('',(#90,#91),#86,.T.);
#69=ADVANCED_FACE('',(#64),#57,.T.);
#70=ADVANCED_FACE('',(#92,#93),#56,.T.);
#71=ADVANCED_FACE('',(#94,#95),#53,.T.);
#72=ADVANCED_FACE('',(#65),#58,.T.);
#73=ADVANCED_FACE('',(#66),#59,.F.);
#74=ADVANCED_FACE('',(#96,#97),#36,.T.);
#75=ADVANCED_FACE('',(#98,#99),#87,.T.);
#76=ADVANCED_FACE('',(#100,#101),#54,.F.);
#77=ADVANCED_FACE('',(#102,#103),#60,.F.);
#78=ADVANCED_FACE('',(#104,#105),#37,.T.);
#79=ADVANCED_FACE('',(#106,#107),#38,.T.);
#80=ADVANCED_FACE('',(#108,#109),#55,.F.);
#81=ADVANCED_FACE('',(#110,#111),#88,.T.);
#82=ADVANCED_FACE('',(#112,#113),#61,.T.);
#83=ADVANCED_FACE('',(#114,#115),#89,.T.);
#84=ADVANCED_FACE('',(#116,#117),#62,.T.);
#85=ADVANCED_FACE('',(#67),#63,.T.);
#86=CYLINDRICAL_SURFACE('',#279,5.);
#87=CYLINDRICAL_SURFACE('',#290,2.2);
#88=CYLINDRICAL_SURFACE('',#303,4.85);
#89=CYLINDRICAL_SURFACE('',#307,5.);
#90=FACE_BOUND('',#118,.T.);
#91=FACE_BOUND('',#119,.T.);
#92=FACE_BOUND('',#121,.T.);
#93=FACE_BOUND('',#122,.T.);
#94=FACE_BOUND('',#123,.T.);
#95=FACE_BOUND('',#124,.T.);
#96=FACE_BOUND('',#127,.T.);
#97=FACE_BOUND('',#128,.T.);
#98=FACE_BOUND('',#129,.T.);
#99=FACE_BOUND('',#130,.T.);
#100=FACE_BOUND('',#131,.T.);
#101=FACE_BOUND('',#132,.T.);
#102=FACE_BOUND('',#133,.T.);
#103=FACE_BOUND('',#134,.T.);
#104=FACE_BOUND('',#135,.T.);
#105=FACE_BOUND('',#136,.T.);
#106=FACE_BOUND('',#137,.T.);
#107=FACE_BOUND('',#138,.T.);
#108=FACE_BOUND('',#139,.T.);
#109=FACE_BOUND('',#140,.T.);
#110=FACE_BOUND('',#141,.T.);
#111=FACE_BOUND('',#142,.T.);
#112=FACE_BOUND('',#143,.T.);
#113=FACE_BOUND('',#144,.T.);
#114=FACE_BOUND('',#145,.T.);
#115=FACE_BOUND('',#146,.T.);
#116=FACE_BOUND('',#147,.T.);
#117=FACE_BOUND('',#148,.T.);
#118=EDGE_LOOP('',(#150));
#119=EDGE_LOOP('',(#151));
#120=EDGE_LOOP('',(#152));
#121=EDGE_LOOP('',(#153));
#122=EDGE_LOOP('',(#154));
#123=EDGE_LOOP('',(#155));
#124=EDGE_LOOP('',(#156));
#125=EDGE_LOOP('',(#157));
#126=EDGE_LOOP('',(#158));
#127=EDGE_LOOP('',(#159));
#128=EDGE_LOOP('',(#160));
#129=EDGE_LOOP('',(#161));
#130=EDGE_LOOP('',(#162));
#131=EDGE_LOOP('',(#163));
#132=EDGE_LOOP('',(#164));
#133=EDGE_LOOP('',(#165));
#134=EDGE_LOOP('',(#166));
#135=EDGE_LOOP('',(#167));
#136=EDGE_LOOP('',(#168));
#137=EDGE_LOOP('',(#169));
#138=EDGE_LOOP('',(#170));
#139=EDGE_LOOP('',(#171));
#140=EDGE_LOOP('',(#172));
#141=EDGE_LOOP('',(#173));
#142=EDGE_LOOP('',(#174));
#143=EDGE_LOOP('',(#175));
#144=EDGE_LOOP('',(#176));
#145=EDGE_LOOP('',(#177));
#146=EDGE_LOOP('',(#178));
#147=EDGE_LOOP('',(#179));
#148=EDGE_LOOP('',(#180));
#149=EDGE_LOOP('',(#181));
#150=ORIENTED_EDGE('',*,*,#198,.T.);
#151=ORIENTED_EDGE('',*,*,#199,.T.);
#152=ORIENTED_EDGE('',*,*,#198,.F.);
#153=ORIENTED_EDGE('',*,*,#200,.T.);
#154=ORIENTED_EDGE('',*,*,#201,.T.);
#155=ORIENTED_EDGE('',*,*,#199,.F.);
#156=ORIENTED_EDGE('',*,*,#200,.F.);
#157=ORIENTED_EDGE('',*,*,#201,.F.);
#158=ORIENTED_EDGE('',*,*,#202,.F.);
#159=ORIENTED_EDGE('',*,*,#203,.F.);
#160=ORIENTED_EDGE('',*,*,#202,.T.);
#161=ORIENTED_EDGE('',*,*,#204,.F.);
#162=ORIENTED_EDGE('',*,*,#203,.T.);
#163=ORIENTED_EDGE('',*,*,#205,.F.);
#164=ORIENTED_EDGE('',*,*,#204,.T.);
#165=ORIENTED_EDGE('',*,*,#206,.F.);
#166=ORIENTED_EDGE('',*,*,#205,.T.);
#167=ORIENTED_EDGE('',*,*,#207,.F.);
#168=ORIENTED_EDGE('',*,*,#206,.T.);
#169=ORIENTED_EDGE('',*,*,#208,.F.);
#170=ORIENTED_EDGE('',*,*,#207,.T.);
#171=ORIENTED_EDGE('',*,*,#209,.F.);
#172=ORIENTED_EDGE('',*,*,#208,.T.);
#173=ORIENTED_EDGE('',*,*,#210,.F.);
#174=ORIENTED_EDGE('',*,*,#211,.T.);
#175=ORIENTED_EDGE('',*,*,#209,.T.);
#176=ORIENTED_EDGE('',*,*,#211,.F.);
#177=ORIENTED_EDGE('',*,*,#212,.T.);
#178=ORIENTED_EDGE('',*,*,#213,.F.);
#179=ORIENTED_EDGE('',*,*,#210,.T.);
#180=ORIENTED_EDGE('',*,*,#212,.F.);
#181=ORIENTED_EDGE('',*,*,#213,.T.);
#182=VERTEX_POINT('',#408);
#183=VERTEX_POINT('',#410);
#184=VERTEX_POINT('',#414);
#185=VERTEX_POINT('',#416);
#186=VERTEX_POINT('',#448);
#187=VERTEX_POINT('',#451);
#188=VERTEX_POINT('',#454);
#189=VERTEX_POINT('',#457);
#190=VERTEX_POINT('',#460);
#191=VERTEX_POINT('',#463);
#192=VERTEX_POINT('',#466);
#193=VERTEX_POINT('',#469);
#194=VERTEX_POINT('',#472);
#195=VERTEX_POINT('',#474);
#196=VERTEX_POINT('',#478);
#197=VERTEX_POINT('',#480);
#198=EDGE_CURVE('',#182,#182,#214,.T.);
#199=EDGE_CURVE('',#183,#183,#215,.T.);
#200=EDGE_CURVE('',#184,#184,#216,.T.);
#201=EDGE_CURVE('',#185,#185,#217,.T.);
#202=EDGE_CURVE('',#186,#186,#218,.T.);
#203=EDGE_CURVE('',#187,#187,#219,.T.);
#204=EDGE_CURVE('',#188,#188,#220,.T.);
#205=EDGE_CURVE('',#189,#189,#221,.T.);
#206=EDGE_CURVE('',#190,#190,#222,.T.);
#207=EDGE_CURVE('',#191,#191,#223,.T.);
#208=EDGE_CURVE('',#192,#192,#224,.T.);
#209=EDGE_CURVE('',#193,#193,#225,.T.);
#210=EDGE_CURVE('',#194,#194,#226,.T.);
#211=EDGE_CURVE('',#195,#195,#227,.T.);
#212=EDGE_CURVE('',#196,#196,#228,.T.);
#213=EDGE_CURVE('',#197,#197,#229,.T.);
#214=CIRCLE('',#277,5.);
#215=CIRCLE('',#278,4.99999999999997);
#216=CIRCLE('',#281,4.27142857142854);
#217=CIRCLE('',#282,1.7);
#218=CIRCLE('',#285,2.);
#219=CIRCLE('',#287,2.2);
#220=CIRCLE('',#289,2.2);
#221=CIRCLE('',#291,2.7);
#222=CIRCLE('',#293,2.87882629506549);
#223=CIRCLE('',#295,3.46741001255328);
#224=CIRCLE('',#297,3.53700145078386);
#225=CIRCLE('',#299,3.83678032570705);
#226=CIRCLE('',#301,4.85);
#227=CIRCLE('',#302,4.85);
#228=CIRCLE('',#305,5.);
#229=CIRCLE('',#306,5.);
#230=CURVE_STYLE('',#234,POSITIVE_LENGTH_MEASURE(0.18),#272);
#231=CURVE_STYLE('',#235,POSITIVE_LENGTH_MEASURE(0.18),#240);
#232=CURVE_STYLE('',#236,POSITIVE_LENGTH_MEASURE(0.18),#240);
#233=CURVE_STYLE('',#237,POSITIVE_LENGTH_MEASURE(0.18),#240);
#234=DRAUGHTING_PRE_DEFINED_CURVE_FONT('continuous');
#235=DRAUGHTING_PRE_DEFINED_CURVE_FONT('continuous');
#236=DRAUGHTING_PRE_DEFINED_CURVE_FONT('continuous');
#237=DRAUGHTING_PRE_DEFINED_CURVE_FONT('continuous');
#238=TRIMMED_CURVE('CUTTING PART LINE',#239,(PARAMETER_VALUE(0.)),(
PARAMETER_VALUE(1.)),.T.,.PARAMETER.);
#239=(
BOUNDED_CURVE()
B_SPLINE_CURVE(3,(#389,#390,#391,#392,#393,#394,#395,#396,#397,#398,#399,
#400,#401,#402,#403),.UNSPECIFIED.,.F.,.F.)
B_SPLINE_CURVE_WITH_KNOTS((4,2,3,3,3,4),(0.,0.113724761142287,0.294404831689694,
0.397822960885968,0.665515408392053,1.),.UNSPECIFIED.)
CURVE()
GEOMETRIC_REPRESENTATION_ITEM()
RATIONAL_B_SPLINE_CURVE((1.,1.,1.,0.975831740666828,0.975831740666828,1.,
0.913426374584421,0.913426374584421,1.,1.,1.,1.,1.,1.,1.))
REPRESENTATION_ITEM('CUTTING PART LINE')
);
#240=COLOUR_RGB('Medium Maroon',0.6,0.4,0.4);
#241=COLOUR_RGB('Light Gray',0.8,0.8,0.8);
#242=COLOUR_RGB('Medium Gray',0.490196078431373,0.490196078431373,0.490196078431373);
#243=PRESENTATION_LAYER_ASSIGNMENT('1','Layer 1',(#385,#386,#387,#388,#238,
#274,#275,#276,#49,#50));
#244=STYLED_ITEM('',(#254),#385);
#245=STYLED_ITEM('',(#255),#386);
#246=STYLED_ITEM('',(#256),#387);
#247=STYLED_ITEM('',(#257),#388);
#248=STYLED_ITEM('',(#258),#238);
#249=STYLED_ITEM('',(#259),#274);
#250=STYLED_ITEM('',(#260),#275);
#251=STYLED_ITEM('',(#261),#276);
#252=STYLED_ITEM('',(#262),#49);
#253=STYLED_ITEM('',(#263),#50);
#254=PRESENTATION_STYLE_ASSIGNMENT((#264));
#255=PRESENTATION_STYLE_ASSIGNMENT((#265));
#256=PRESENTATION_STYLE_ASSIGNMENT((#266));
#257=PRESENTATION_STYLE_ASSIGNMENT((#267));
#258=PRESENTATION_STYLE_ASSIGNMENT((#230));
#259=PRESENTATION_STYLE_ASSIGNMENT((#231));
#260=PRESENTATION_STYLE_ASSIGNMENT((#232));
#261=PRESENTATION_STYLE_ASSIGNMENT((#233));
#262=PRESENTATION_STYLE_ASSIGNMENT((#39));
#263=PRESENTATION_STYLE_ASSIGNMENT((#40));
#264=POINT_STYLE('',#268,POSITIVE_LENGTH_MEASURE(3.),#272);
#265=POINT_STYLE('',#269,POSITIVE_LENGTH_MEASURE(3.),#240);
#266=POINT_STYLE('',#270,POSITIVE_LENGTH_MEASURE(3.),#240);
#267=POINT_STYLE('',#271,POSITIVE_LENGTH_MEASURE(3.),#240);
#268=PRE_DEFINED_POINT_MARKER_SYMBOL('plus');
#269=PRE_DEFINED_POINT_MARKER_SYMBOL('plus');
#270=PRE_DEFINED_POINT_MARKER_SYMBOL('plus');
#271=PRE_DEFINED_POINT_MARKER_SYMBOL('plus');
#272=DRAUGHTING_PRE_DEFINED_COLOUR('blue');
#273=AXIS2_PLACEMENT_3D('',#384,#310,#311);
#274=AXIS2_PLACEMENT_3D('MCS',#404,#312,#313);
#275=AXIS2_PLACEMENT_3D('PCS',#405,#314,#315);
#276=AXIS2_PLACEMENT_3D('CIP',#406,#316,#317);
#277=AXIS2_PLACEMENT_3D('',#407,#318,#319);
#278=AXIS2_PLACEMENT_3D('',#409,#320,#321);
#279=AXIS2_PLACEMENT_3D('',#411,#322,#323);
#280=AXIS2_PLACEMENT_3D('',#412,#324,#325);
#281=AXIS2_PLACEMENT_3D('',#413,#326,#327);
#282=AXIS2_PLACEMENT_3D('',#415,#328,#329);
#283=AXIS2_PLACEMENT_3D('',#445,#330,#331);
#284=AXIS2_PLACEMENT_3D('',#446,#332,#333);
#285=AXIS2_PLACEMENT_3D('',#447,#334,#335);
#286=AXIS2_PLACEMENT_3D('',#449,#336,#337);
#287=AXIS2_PLACEMENT_3D('',#450,#338,#339);
#288=AXIS2_PLACEMENT_3D('',#452,#340,#341);
#289=AXIS2_PLACEMENT_3D('',#453,#342,#343);
#290=AXIS2_PLACEMENT_3D('',#455,#344,#345);
#291=AXIS2_PLACEMENT_3D('',#456,#346,#347);
#292=AXIS2_PLACEMENT_3D('',#458,#348,#349);
#293=AXIS2_PLACEMENT_3D('',#459,#350,#351);
#294=AXIS2_PLACEMENT_3D('',#461,#352,#353);
#295=AXIS2_PLACEMENT_3D('',#462,#354,#355);
#296=AXIS2_PLACEMENT_3D('',#464,#356,#357);
#297=AXIS2_PLACEMENT_3D('',#465,#358,#359);
#298=AXIS2_PLACEMENT_3D('',#467,#360,#361);
#299=AXIS2_PLACEMENT_3D('',#468,#362,#363);
#300=AXIS2_PLACEMENT_3D('',#470,#364,#365);
#301=AXIS2_PLACEMENT_3D('',#471,#366,#367);
#302=AXIS2_PLACEMENT_3D('',#473,#368,#369);
#303=AXIS2_PLACEMENT_3D('',#475,#370,#371);
#304=AXIS2_PLACEMENT_3D('',#476,#372,#373);
#305=AXIS2_PLACEMENT_3D('',#477,#374,#375);
#306=AXIS2_PLACEMENT_3D('',#479,#376,#377);
#307=AXIS2_PLACEMENT_3D('',#481,#378,#379);
#308=AXIS2_PLACEMENT_3D('',#482,#380,#381);
#309=AXIS2_PLACEMENT_3D('',#483,#382,#383);
#310=DIRECTION('',(0.,0.,1.));
#311=DIRECTION('',(1.,0.,0.));
#312=DIRECTION('',(0.,0.,1.));
#313=DIRECTION('',(1.,0.,0.));
#314=DIRECTION('',(0.,0.,1.));
#315=DIRECTION('',(1.,0.,0.));
#316=DIRECTION('',(0.,0.,1.));
#317=DIRECTION('',(1.,0.,0.));
#318=DIRECTION('',(0.,0.,-1.));
#319=DIRECTION('',(1.,0.,0.));
#320=DIRECTION('',(0.,-7.40161019100423E-17,1.));
#321=DIRECTION('',(0.,1.,0.));
#322=DIRECTION('',(0.,0.,-1.));
#323=DIRECTION('',(-1.,0.,0.));
#324=DIRECTION('',(0.,0.,1.));
#325=DIRECTION('',(1.,0.,0.));
#326=DIRECTION('',(0.,7.40161019100423E-17,-1.));
#327=DIRECTION('',(0.,1.,0.));
#328=DIRECTION('',(0.,-7.40161019100423E-17,1.));
#329=DIRECTION('',(0.,1.,0.));
#330=DIRECTION('',(0.,-7.40161019100423E-17,1.));
#331=DIRECTION('',(0.,-1.,0.));
#332=DIRECTION('',(0.,0.,-1.));
#333=DIRECTION('',(-1.,0.,0.));
#334=DIRECTION('',(0.,0.,-1.));
#335=DIRECTION('',(1.,0.,0.));
#336=DIRECTION('',(0.,0.,-1.));
#337=DIRECTION('',(-1.,0.,0.));
#338=DIRECTION('',(0.,0.,-1.));
#339=DIRECTION('',(1.,0.,0.));
#340=DIRECTION('',(0.,0.,-1.));
#341=DIRECTION('',(-1.,0.,-1.2118826678481E-17));
#342=DIRECTION('',(0.,0.,-1.));
#343=DIRECTION('',(1.,0.,0.));
#344=DIRECTION('',(0.,0.,-1.));
#345=DIRECTION('',(-1.,0.,0.));
#346=DIRECTION('',(0.,0.,-1.));
#347=DIRECTION('',(1.,0.,0.));
#348=DIRECTION('',(0.,0.,-1.));
#349=DIRECTION('',(-1.,0.,0.));
#350=DIRECTION('',(0.,0.,-1.));
#351=DIRECTION('',(1.,0.,0.));
#352=DIRECTION('',(0.,0.,-1.));
#353=DIRECTION('',(-1.,0.,0.));
#354=DIRECTION('',(0.,0.,-1.));
#355=DIRECTION('',(1.,0.,0.));
#356=DIRECTION('',(0.,0.,-1.));
#357=DIRECTION('',(-1.,0.,3.69489801185374E-16));
#358=DIRECTION('',(0.,0.,-1.));
#359=DIRECTION('',(1.,0.,0.));
#360=DIRECTION('',(0.,0.,-1.));
#361=DIRECTION('',(-1.,0.,-2.2779784750566E-16));
#362=DIRECTION('',(0.,0.,-1.));
#363=DIRECTION('',(1.,0.,0.));
#364=DIRECTION('',(0.,0.,-1.));
#365=DIRECTION('',(-1.,0.,0.));
#366=DIRECTION('',(0.,0.,-1.));
#367=DIRECTION('',(1.,0.,0.));
#368=DIRECTION('',(0.,0.,-1.));
#369=DIRECTION('',(1.,0.,0.));
#370=DIRECTION('',(0.,0.,-1.));
#371=DIRECTION('',(-1.,0.,0.));
#372=DIRECTION('',(0.,0.,1.));
#373=DIRECTION('',(1.,0.,0.));
#374=DIRECTION('',(0.,0.,-1.));
#375=DIRECTION('',(1.,0.,0.));
#376=DIRECTION('',(0.,0.,-1.));
#377=DIRECTION('',(1.,0.,0.));
#378=DIRECTION('',(0.,0.,-1.));
#379=DIRECTION('',(-1.,0.,0.));
#380=DIRECTION('',(0.,0.,1.));
#381=DIRECTION('',(1.,0.,0.));
#382=DIRECTION('',(0.,0.,-1.));
#383=DIRECTION('',(-1.,0.,0.));
#384=CARTESIAN_POINT('',(0.,0.,0.));
#385=CARTESIAN_POINT('CRP',(-5.,0.,-12.4));
#386=CARTESIAN_POINT('',(0.,0.,0.));
#387=CARTESIAN_POINT('',(0.,0.,0.));
#388=CARTESIAN_POINT('',(0.,0.,-12.4));
#389=CARTESIAN_POINT('',(-1.06581410364015E-14,0.,-12.4));
#390=CARTESIAN_POINT('',(-0.566666666666677,0.,-12.4));
#391=CARTESIAN_POINT('',(-1.13333333333334,0.,-12.4));
#392=CARTESIAN_POINT('',(-2.61141244760341,0.,-12.4));
#393=CARTESIAN_POINT('',(-3.48978401661707,0.,-12.1568209787114));
#394=CARTESIAN_POINT('',(-4.27142857142858,0.,-11.6880945770867));
#395=CARTESIAN_POINT('',(-4.73412510344074,0.,-11.4106307616489));
#396=CARTESIAN_POINT('',(-5.00000000000001,0.,-10.9411791784233));
#397=CARTESIAN_POINT('',(-5.00000000000001,0.,-10.4016662039607));
#398=CARTESIAN_POINT('',(-5.,0.,-9.06781080264047));
#399=CARTESIAN_POINT('',(-5.,0.,-7.73395540132023));
#400=CARTESIAN_POINT('',(-4.99999999999999,0.,-6.40009999999999));
#401=CARTESIAN_POINT('',(-3.33333333333333,0.,-6.4001));
#402=CARTESIAN_POINT('',(-1.66666666666666,0.,-6.40010000000001));
#403=CARTESIAN_POINT('',(6.21724893790088E-15,0.,-6.40010000000002));
#404=CARTESIAN_POINT('',(0.,0.,0.));
#405=CARTESIAN_POINT('',(0.,0.,0.));
#406=CARTESIAN_POINT('',(0.,0.,-12.4));
#407=CARTESIAN_POINT('',(0.,0.,-6.4001));
#408=CARTESIAN_POINT('',(5.,0.,-6.4001));
#409=CARTESIAN_POINT('',(0.,2.51662638120245E-15,-10.4016662039607));
#410=CARTESIAN_POINT('',(0.,4.99999999999997,-10.4016662039607));
#411=CARTESIAN_POINT('',(0.,0.,0.));
#412=CARTESIAN_POINT('',(0.,-5.,-6.4001));
#413=CARTESIAN_POINT('',(0.,2.61184279476772E-15,-11.6880945770868));
#414=CARTESIAN_POINT('',(0.,4.27142857142855,-11.6880945770868));
#415=CARTESIAN_POINT('',(0.,2.66453525910038E-15,-12.4));
#416=CARTESIAN_POINT('',(0.,1.7,-12.4));
#417=CARTESIAN_POINT('',(-4.27142857142853,4.77048955893622E-15,-11.6880945770868));
#418=CARTESIAN_POINT('',(-4.27142857142853,-8.54285714285706,-11.6880945770868));
#419=CARTESIAN_POINT('',(4.27142857142853,-8.54285714285706,-11.6880945770868));
#420=CARTESIAN_POINT('',(4.27142857142853,4.77048955893622E-15,-11.6880945770868));
#421=CARTESIAN_POINT('',(4.27142857142853,8.54285714285707,-11.6880945770868));
#422=CARTESIAN_POINT('',(-4.27142857142853,8.54285714285707,-11.6880945770868));
#423=CARTESIAN_POINT('',(-4.27142857142853,4.77048955893622E-15,-11.6880945770868));
#424=CARTESIAN_POINT('',(-3.48978401661704,4.77048955893622E-15,-12.1568209787114));
#425=CARTESIAN_POINT('',(-3.48978401661704,-6.97956803323407,-12.1568209787114));
#426=CARTESIAN_POINT('',(3.48978401661704,-6.97956803323407,-12.1568209787114));
#427=CARTESIAN_POINT('',(3.48978401661704,4.77048955893622E-15,-12.1568209787114));
#428=CARTESIAN_POINT('',(3.48978401661704,6.97956803323408,-12.1568209787114));
#429=CARTESIAN_POINT('',(-3.48978401661704,6.97956803323408,-12.1568209787114));
#430=CARTESIAN_POINT('',(-3.48978401661704,4.77048955893622E-15,-12.1568209787114));
#431=CARTESIAN_POINT('',(-2.61141244760339,4.77048955893622E-15,-12.4));
#432=CARTESIAN_POINT('',(-2.61141244760339,-5.22282489520677,-12.4));
#433=CARTESIAN_POINT('',(2.61141244760339,-5.22282489520677,-12.4));
#434=CARTESIAN_POINT('',(2.61141244760339,4.77048955893622E-15,-12.4));
#435=CARTESIAN_POINT('',(2.61141244760339,5.22282489520678,-12.4));
#436=CARTESIAN_POINT('',(-2.61141244760339,5.22282489520678,-12.4));
#437=CARTESIAN_POINT('',(-2.61141244760339,4.77048955893622E-15,-12.4));
#438=CARTESIAN_POINT('',(-1.7,4.77048955893622E-15,-12.4));
#439=CARTESIAN_POINT('',(-1.7,-3.4,-12.4));
#440=CARTESIAN_POINT('',(1.7,-3.4,-12.4));
#441=CARTESIAN_POINT('',(1.7,4.77048955893622E-15,-12.4));
#442=CARTESIAN_POINT('',(1.7,3.40000000000001,-12.4));
#443=CARTESIAN_POINT('',(-1.7,3.40000000000001,-12.4));
#444=CARTESIAN_POINT('',(-1.7,4.77048955893622E-15,-12.4));
#445=CARTESIAN_POINT('',(0.,2.60208521396521E-15,-10.4016662039607));
#446=CARTESIAN_POINT('',(0.,2.66453525910038E-15,-12.4));
#447=CARTESIAN_POINT('',(0.,0.,11.2));
#448=CARTESIAN_POINT('',(2.,0.,11.2));
#449=CARTESIAN_POINT('',(1.28670601971317E-15,0.,11.2));
#450=CARTESIAN_POINT('',(0.,0.,11.));
#451=CARTESIAN_POINT('',(2.2,0.,11.));
#452=CARTESIAN_POINT('',(0.,0.,11.2));
#453=CARTESIAN_POINT('',(0.,0.,8.2));
#454=CARTESIAN_POINT('',(2.2,0.,8.2));
#455=CARTESIAN_POINT('',(0.,0.,0.));
#456=CARTESIAN_POINT('',(0.,0.,7.7));
#457=CARTESIAN_POINT('',(2.7,0.,7.7));
#458=CARTESIAN_POINT('',(0.,0.,8.2));
#459=CARTESIAN_POINT('',(0.,0.,7.7));
#460=CARTESIAN_POINT('',(2.87882629506549,0.,7.7));
#461=CARTESIAN_POINT('',(-3.70690554040732E-15,2.7,7.7));
#462=CARTESIAN_POINT('',(0.,0.,2.1));
#463=CARTESIAN_POINT('',(3.46741001255328,0.,2.1));
#464=CARTESIAN_POINT('',(0.,0.,7.7));
#465=CARTESIAN_POINT('',(0.,0.,0.288483657273744));
#466=CARTESIAN_POINT('',(3.53700145078386,0.,0.288483657273744));
#467=CARTESIAN_POINT('',(0.,0.,2.1));
#468=CARTESIAN_POINT('',(0.,0.,3.79470760369927E-16));
#469=CARTESIAN_POINT('',(3.83678032570705,0.,3.79470760369927E-16));
#470=CARTESIAN_POINT('',(0.,0.,0.3));
#471=CARTESIAN_POINT('',(0.,0.,-6.4));
#472=CARTESIAN_POINT('',(4.85,0.,-6.4));
#473=CARTESIAN_POINT('',(0.,0.,0.));
#474=CARTESIAN_POINT('',(4.85,0.,0.));
#475=CARTESIAN_POINT('',(0.,0.,0.));
#476=CARTESIAN_POINT('',(0.,-4.85,0.));
#477=CARTESIAN_POINT('',(0.,0.,-6.4));
#478=CARTESIAN_POINT('',(5.,0.,-6.4));
#479=CARTESIAN_POINT('',(0.,0.,-6.4001));
#480=CARTESIAN_POINT('',(5.,0.,-6.4001));
#481=CARTESIAN_POINT('',(0.,0.,-6.4));
#482=CARTESIAN_POINT('',(0.,-5.,-6.4));
#483=CARTESIAN_POINT('',(0.,0.,-6.4001));
#484=MECHANICAL_DESIGN_GEOMETRIC_PRESENTATION_REPRESENTATION('',(#244,#245,
#246,#247,#248,#249,#250,#251,#252,#253),#485);
#485=(
GEOMETRIC_REPRESENTATION_CONTEXT(3)
GLOBAL_UNCERTAINTY_ASSIGNED_CONTEXT((#486))
GLOBAL_UNIT_ASSIGNED_CONTEXT((#492,#488,#487))
REPRESENTATION_CONTEXT('XHF580E10100D1HZ4A_Basic',
'TOP_LEVEL_ASSEMBLY_PART')
);
#486=UNCERTAINTY_MEASURE_WITH_UNIT(LENGTH_MEASURE(0.0254),#492,
'DISTANCE_ACCURACY_VALUE','Maximum Tolerance applied to model');
#487=(
NAMED_UNIT(*)
SI_UNIT($,.STERADIAN.)
SOLID_ANGLE_UNIT()
);
#488=(
CONVERSION_BASED_UNIT('DEGREE',#490)
NAMED_UNIT(#489)
PLANE_ANGLE_UNIT()
);
#489=DIMENSIONAL_EXPONENTS(0.,0.,0.,0.,0.,0.,0.);
#490=PLANE_ANGLE_MEASURE_WITH_UNIT(PLANE_ANGLE_MEASURE(0.0174532925),#491);
#491=(
NAMED_UNIT(*)
PLANE_ANGLE_UNIT()
SI_UNIT($,.RADIAN.)
);
#492=(
LENGTH_UNIT()
NAMED_UNIT(*)
SI_UNIT(.MILLI.,.METRE.)
);
ENDSEC;
END-ISO-10303-21;
