ISO-10303-21;
HEADER;
/* Generated by software containing ST-Developer
 * from STEP Tools, Inc. (www.steptools.com) 
 */
/* OPTION: using custom schema-name function */

FILE_DESCRIPTION(
/* description */ (''),
/* implementation_level */ '2;1');

FILE_NAME(
/* name */ 'XHF780E16.625D1HZ3_Basic.stp',
/* time_stamp */ '2022-07-03T16:49:33+05:00',
/* author */ (''),
/* organization */ (''),
/* preprocessor_version */ 'ST-DEVELOPER v16.7',
/* originating_system */ 'SIEMENS PLM Software NX 12.0',
/* authorisation */ '');

FILE_SCHEMA (('AUTOMOTIVE_DESIGN { 1 0 10303 214 3 1 1 1 }'));
ENDSEC;

DATA;
#10=CONSTRUCTIVE_GEOMETRY_REPRESENTATION_RELATIONSHIP(
'supplemental geometry','',#34,#11);
#11=CONSTRUCTIVE_GEOMETRY_REPRESENTATION('supplemental geometry',(#253,
#254,#255),#450);
#12=GEOMETRICALLY_BOUNDED_WIREFRAME_SHAPE_REPRESENTATION(
'inpu9A94AA24fxpz-None',(#35),#450);
#13=PROPERTY_DEFINITION_REPRESENTATION(#17,#15);
#14=PROPERTY_DEFINITION_REPRESENTATION(#18,#16);
#15=REPRESENTATION('',(#19),#450);
#16=REPRESENTATION('',(#20),#450);
#17=PROPERTY_DEFINITION('pmi validation property','',#25);
#18=PROPERTY_DEFINITION('pmi validation property','',#25);
#19=VALUE_REPRESENTATION_ITEM('number of annotations',COUNT_MEASURE(0.));
#20=VALUE_REPRESENTATION_ITEM('number of views',COUNT_MEASURE(0.));
#21=SHAPE_REPRESENTATION_RELATIONSHIP('None',
'relationship between inpu9A94AA24fxpz-None and inpu9A94AA24fxpz-None',
#34,#23);
#22=SHAPE_REPRESENTATION_RELATIONSHIP('None',
'relationship between inpu9A94AA24fxpz-None and inpu9A94AA24fxpz-None',
#34,#12);
#23=ADVANCED_BREP_SHAPE_REPRESENTATION('inpu9A94AA24fxpz-None',(#47,#48),
#450);
#24=SHAPE_DEFINITION_REPRESENTATION(#25,#34);
#25=PRODUCT_DEFINITION_SHAPE('','',#26);
#26=PRODUCT_DEFINITION(' ','',#28,#27);
#27=PRODUCT_DEFINITION_CONTEXT('part definition',#33,'design');
#28=PRODUCT_DEFINITION_FORMATION_WITH_SPECIFIED_SOURCE(' ',' ',#30,
 .NOT_KNOWN.);
#29=PRODUCT_RELATED_PRODUCT_CATEGORY('part','',(#30));
#30=PRODUCT('inpu9A94AA24fxpz','inpu9A94AA24fxpz',' ',(#31));
#31=PRODUCT_CONTEXT(' ',#33,'mechanical');
#32=APPLICATION_PROTOCOL_DEFINITION('international standard',
'automotive_design',2010,#33);
#33=APPLICATION_CONTEXT(
'core data for automotive mechanical design processes');
#34=SHAPE_REPRESENTATION('inpu9A94AA24fxpz-None',(#252),#450);
#35=GEOMETRIC_CURVE_SET('None',(#352,#353,#354,#355,#217));
#36=(
BOUNDED_SURFACE()
B_SPLINE_SURFACE(3,3,((#414,#415,#416,#417,#418,#419,#420),(#421,#422,#423,
#424,#425,#426,#427),(#428,#429,#430,#431,#432,#433,#434),(#435,#436,#437,
#438,#439,#440,#441)),.UNSPECIFIED.,.F.,.T.,.F.)
B_SPLINE_SURFACE_WITH_KNOTS((4,4),(1,3,3,3,1),(0.,1.),(-0.5,0.,0.5,1.,1.5),
 .UNSPECIFIED.)
GEOMETRIC_REPRESENTATION_ITEM()
RATIONAL_B_SPLINE_SURFACE(((1.,0.333333333333333,0.333333333333333,1.,0.333333333333333,
0.333333333333333,1.),(0.987115490750372,0.329038496916791,0.329038496916791,
0.987115490750372,0.329038496916791,0.329038496916791,0.987115490750372),
(0.987115490750372,0.329038496916791,0.329038496916791,0.987115490750372,
0.329038496916791,0.329038496916791,0.987115490750372),(1.,0.333333333333333,
0.333333333333333,1.,0.333333333333333,0.333333333333333,1.)))
REPRESENTATION_ITEM('')
SURFACE()
);
#37=SURFACE_STYLE_USAGE(.BOTH.,#39);
#38=SURFACE_STYLE_USAGE(.BOTH.,#40);
#39=SURFACE_SIDE_STYLE('',(#41));
#40=SURFACE_SIDE_STYLE('',(#42));
#41=SURFACE_STYLE_FILL_AREA(#43);
#42=SURFACE_STYLE_FILL_AREA(#44);
#43=FILL_AREA_STYLE('',(#45));
#44=FILL_AREA_STYLE('',(#46));
#45=FILL_AREA_STYLE_COLOUR('',#250);
#46=FILL_AREA_STYLE_COLOUR('',#251);
#47=MANIFOLD_SOLID_BREP('NOCUT',#49);
#48=MANIFOLD_SOLID_BREP('CUT',#50);
#49=CLOSED_SHELL('',(#84,#85,#86,#87,#88,#89,#90,#91,#92,#93,#94));
#50=CLOSED_SHELL('',(#95,#96,#97,#98,#99));
#51=CONICAL_SURFACE('',#265,5.72434762182978,2.20000000000004);
#52=CONICAL_SURFACE('',#267,5.63155903752234,6.);
#53=CONICAL_SURFACE('',#275,3.5,45.);
#54=CONICAL_SURFACE('',#283,7.93156372902313,5.00000000000002);
#55=TOROIDAL_SURFACE('',#263,6.12405278839403,0.400000000000001);
#56=TOROIDAL_SURFACE('',#271,4.,0.5);
#57=TOROIDAL_SURFACE('',#281,6.3775,1.56);
#58=CYLINDRICAL_SURFACE('',#259,7.75);
#59=CYLINDRICAL_SURFACE('',#273,3.5);
#60=FACE_BOUND('',#111,.T.);
#61=FACE_BOUND('',#112,.T.);
#62=FACE_BOUND('',#113,.T.);
#63=FACE_BOUND('',#114,.T.);
#64=FACE_BOUND('',#115,.T.);
#65=FACE_BOUND('',#116,.T.);
#66=FACE_BOUND('',#117,.T.);
#67=FACE_BOUND('',#118,.T.);
#68=FACE_BOUND('',#119,.T.);
#69=FACE_BOUND('',#120,.T.);
#70=FACE_BOUND('',#121,.T.);
#71=FACE_BOUND('',#122,.T.);
#72=FACE_BOUND('',#123,.T.);
#73=FACE_BOUND('',#124,.T.);
#74=FACE_BOUND('',#125,.T.);
#75=FACE_BOUND('',#126,.T.);
#76=FACE_BOUND('',#127,.T.);
#77=FACE_BOUND('',#128,.T.);
#78=FACE_BOUND('',#131,.T.);
#79=FACE_BOUND('',#132,.T.);
#80=FACE_BOUND('',#133,.T.);
#81=FACE_BOUND('',#134,.T.);
#82=FACE_BOUND('',#135,.T.);
#83=FACE_BOUND('',#136,.T.);
#84=ADVANCED_FACE('',(#106),#100,.T.);
#85=ADVANCED_FACE('',(#60,#61),#58,.T.);
#86=ADVANCED_FACE('',(#62,#63),#101,.T.);
#87=ADVANCED_FACE('',(#64,#65),#55,.F.);
#88=ADVANCED_FACE('',(#66,#67),#51,.T.);
#89=ADVANCED_FACE('',(#68,#69),#52,.T.);
#90=ADVANCED_FACE('',(#70,#71),#102,.T.);
#91=ADVANCED_FACE('',(#72,#73),#56,.F.);
#92=ADVANCED_FACE('',(#74,#75),#59,.T.);
#93=ADVANCED_FACE('',(#76,#77),#53,.T.);
#94=ADVANCED_FACE('',(#107),#103,.T.);
#95=ADVANCED_FACE('',(#108),#104,.T.);
#96=ADVANCED_FACE('',(#78,#79),#36,.T.);
#97=ADVANCED_FACE('',(#80,#81),#57,.T.);
#98=ADVANCED_FACE('',(#82,#83),#54,.T.);
#99=ADVANCED_FACE('',(#109),#105,.T.);
#100=PLANE('',#257);
#101=PLANE('',#261);
#102=PLANE('',#269);
#103=PLANE('',#276);
#104=PLANE('',#278);
#105=PLANE('',#284);
#106=FACE_OUTER_BOUND('',#110,.T.);
#107=FACE_OUTER_BOUND('',#129,.T.);
#108=FACE_OUTER_BOUND('',#130,.T.);
#109=FACE_OUTER_BOUND('',#137,.T.);
#110=EDGE_LOOP('',(#138));
#111=EDGE_LOOP('',(#139));
#112=EDGE_LOOP('',(#140));
#113=EDGE_LOOP('',(#141));
#114=EDGE_LOOP('',(#142));
#115=EDGE_LOOP('',(#143));
#116=EDGE_LOOP('',(#144));
#117=EDGE_LOOP('',(#145));
#118=EDGE_LOOP('',(#146));
#119=EDGE_LOOP('',(#147));
#120=EDGE_LOOP('',(#148));
#121=EDGE_LOOP('',(#149));
#122=EDGE_LOOP('',(#150));
#123=EDGE_LOOP('',(#151));
#124=EDGE_LOOP('',(#152));
#125=EDGE_LOOP('',(#153));
#126=EDGE_LOOP('',(#154));
#127=EDGE_LOOP('',(#155));
#128=EDGE_LOOP('',(#156));
#129=EDGE_LOOP('',(#157));
#130=EDGE_LOOP('',(#158));
#131=EDGE_LOOP('',(#159));
#132=EDGE_LOOP('',(#160));
#133=EDGE_LOOP('',(#161));
#134=EDGE_LOOP('',(#162));
#135=EDGE_LOOP('',(#163));
#136=EDGE_LOOP('',(#164));
#137=EDGE_LOOP('',(#165));
#138=ORIENTED_EDGE('',*,*,#180,.T.);
#139=ORIENTED_EDGE('',*,*,#181,.T.);
#140=ORIENTED_EDGE('',*,*,#180,.F.);
#141=ORIENTED_EDGE('',*,*,#182,.T.);
#142=ORIENTED_EDGE('',*,*,#181,.F.);
#143=ORIENTED_EDGE('',*,*,#183,.T.);
#144=ORIENTED_EDGE('',*,*,#182,.F.);
#145=ORIENTED_EDGE('',*,*,#184,.T.);
#146=ORIENTED_EDGE('',*,*,#183,.F.);
#147=ORIENTED_EDGE('',*,*,#185,.T.);
#148=ORIENTED_EDGE('',*,*,#184,.F.);
#149=ORIENTED_EDGE('',*,*,#186,.T.);
#150=ORIENTED_EDGE('',*,*,#185,.F.);
#151=ORIENTED_EDGE('',*,*,#187,.T.);
#152=ORIENTED_EDGE('',*,*,#186,.F.);
#153=ORIENTED_EDGE('',*,*,#188,.T.);
#154=ORIENTED_EDGE('',*,*,#187,.F.);
#155=ORIENTED_EDGE('',*,*,#189,.T.);
#156=ORIENTED_EDGE('',*,*,#188,.F.);
#157=ORIENTED_EDGE('',*,*,#189,.F.);
#158=ORIENTED_EDGE('',*,*,#190,.T.);
#159=ORIENTED_EDGE('',*,*,#190,.F.);
#160=ORIENTED_EDGE('',*,*,#191,.T.);
#161=ORIENTED_EDGE('',*,*,#191,.F.);
#162=ORIENTED_EDGE('',*,*,#192,.T.);
#163=ORIENTED_EDGE('',*,*,#193,.T.);
#164=ORIENTED_EDGE('',*,*,#192,.F.);
#165=ORIENTED_EDGE('',*,*,#193,.F.);
#166=VERTEX_POINT('',#379);
#167=VERTEX_POINT('',#382);
#168=VERTEX_POINT('',#385);
#169=VERTEX_POINT('',#388);
#170=VERTEX_POINT('',#391);
#171=VERTEX_POINT('',#394);
#172=VERTEX_POINT('',#397);
#173=VERTEX_POINT('',#400);
#174=VERTEX_POINT('',#403);
#175=VERTEX_POINT('',#406);
#176=VERTEX_POINT('',#410);
#177=VERTEX_POINT('',#413);
#178=VERTEX_POINT('',#443);
#179=VERTEX_POINT('',#446);
#180=EDGE_CURVE('',#166,#166,#194,.T.);
#181=EDGE_CURVE('',#167,#167,#195,.T.);
#182=EDGE_CURVE('',#168,#168,#196,.T.);
#183=EDGE_CURVE('',#169,#169,#197,.T.);
#184=EDGE_CURVE('',#170,#170,#198,.T.);
#185=EDGE_CURVE('',#171,#171,#199,.T.);
#186=EDGE_CURVE('',#172,#172,#200,.T.);
#187=EDGE_CURVE('',#173,#173,#201,.T.);
#188=EDGE_CURVE('',#174,#174,#202,.T.);
#189=EDGE_CURVE('',#175,#175,#203,.T.);
#190=EDGE_CURVE('',#176,#176,#204,.T.);
#191=EDGE_CURVE('',#177,#177,#205,.T.);
#192=EDGE_CURVE('',#178,#178,#206,.T.);
#193=EDGE_CURVE('',#179,#179,#207,.T.);
#194=CIRCLE('',#256,7.75);
#195=CIRCLE('',#258,7.75);
#196=CIRCLE('',#260,6.12405278839403);
#197=CIRCLE('',#262,5.72434762182978);
#198=CIRCLE('',#264,5.63155903752234);
#199=CIRCLE('',#266,4.55949583781244);
#200=CIRCLE('',#268,4.);
#201=CIRCLE('',#270,3.5);
#202=CIRCLE('',#272,3.5);
#203=CIRCLE('',#274,3.);
#204=CIRCLE('',#277,3.96875);
#205=CIRCLE('',#279,6.97613885830395);
#206=CIRCLE('',#280,7.93156372902313);
#207=CIRCLE('',#282,7.08032347255659);
#208=CURVE_STYLE('',#213,POSITIVE_LENGTH_MEASURE(0.18),#212);
#209=CURVE_STYLE('',#214,POSITIVE_LENGTH_MEASURE(0.18),#248);
#210=CURVE_STYLE('',#215,POSITIVE_LENGTH_MEASURE(0.18),#248);
#211=CURVE_STYLE('',#216,POSITIVE_LENGTH_MEASURE(0.18),#248);
#212=DRAUGHTING_PRE_DEFINED_COLOUR('blue');
#213=DRAUGHTING_PRE_DEFINED_CURVE_FONT('continuous');
#214=DRAUGHTING_PRE_DEFINED_CURVE_FONT('continuous');
#215=DRAUGHTING_PRE_DEFINED_CURVE_FONT('continuous');
#216=DRAUGHTING_PRE_DEFINED_CURVE_FONT('continuous');
#217=TRIMMED_CURVE('CUTTING PART LINE',#218,(PARAMETER_VALUE(0.)),(
PARAMETER_VALUE(1.)),.T.,.PARAMETER.);
#218=(
BOUNDED_CURVE()
B_SPLINE_CURVE(3,(#356,#357,#358,#359,#360,#361,#362,#363,#364,#365,#366,
#367,#368,#369,#370,#371,#372,#373,#374),.UNSPECIFIED.,.T.,.F.)
B_SPLINE_CURVE_WITH_KNOTS((1,3,3,3,3,3,3,3,1),(-0.0717463137505746,0.,0.106579986415297,
0.426319945661187,0.616460614516869,0.878748398270719,0.928253686249425,
1.,1.1065799864153),.UNSPECIFIED.)
CURVE()
GEOMETRIC_REPRESENTATION_ITEM()
RATIONAL_B_SPLINE_CURVE((1.,1.,1.,1.,1.,1.,1.,1.,1.,1.,1.,1.,1.,0.871189055842815,
0.871189055842815,1.,0.987115490750372,0.987115490750372,1.))
REPRESENTATION_ITEM('CUTTING PART LINE')
);
#219=PRESENTATION_LAYER_ASSIGNMENT('1','Layer 1',(#352,#353,#354,#355,#217,
#253,#254,#255,#47,#48));
#220=STYLED_ITEM('',(#230),#352);
#221=STYLED_ITEM('',(#231),#353);
#222=STYLED_ITEM('',(#232),#354);
#223=STYLED_ITEM('',(#233),#355);
#224=STYLED_ITEM('',(#234),#217);
#225=STYLED_ITEM('',(#235),#253);
#226=STYLED_ITEM('',(#236),#254);
#227=STYLED_ITEM('',(#237),#255);
#228=STYLED_ITEM('',(#238),#47);
#229=STYLED_ITEM('',(#239),#48);
#230=PRESENTATION_STYLE_ASSIGNMENT((#240));
#231=PRESENTATION_STYLE_ASSIGNMENT((#241));
#232=PRESENTATION_STYLE_ASSIGNMENT((#242));
#233=PRESENTATION_STYLE_ASSIGNMENT((#243));
#234=PRESENTATION_STYLE_ASSIGNMENT((#208));
#235=PRESENTATION_STYLE_ASSIGNMENT((#209));
#236=PRESENTATION_STYLE_ASSIGNMENT((#210));
#237=PRESENTATION_STYLE_ASSIGNMENT((#211));
#238=PRESENTATION_STYLE_ASSIGNMENT((#37));
#239=PRESENTATION_STYLE_ASSIGNMENT((#38));
#240=POINT_STYLE('',#244,POSITIVE_LENGTH_MEASURE(3.),#248);
#241=POINT_STYLE('',#245,POSITIVE_LENGTH_MEASURE(3.),#248);
#242=POINT_STYLE('',#246,POSITIVE_LENGTH_MEASURE(3.),#248);
#243=POINT_STYLE('',#247,POSITIVE_LENGTH_MEASURE(3.),#249);
#244=PRE_DEFINED_POINT_MARKER_SYMBOL('plus');
#245=PRE_DEFINED_POINT_MARKER_SYMBOL('plus');
#246=PRE_DEFINED_POINT_MARKER_SYMBOL('plus');
#247=PRE_DEFINED_POINT_MARKER_SYMBOL('plus');
#248=COLOUR_RGB('Pale Maroon',0.811749446860456,0.603921568627451,0.611749446860456);
#249=COLOUR_RGB('Medium Royal',0.2,0.4,0.8);
#250=COLOUR_RGB('Medium Gray',0.490196078431373,0.490196078431373,0.490196078431373);
#251=COLOUR_RGB('Light Gray',0.8,0.8,0.8);
#252=AXIS2_PLACEMENT_3D('',#351,#285,#286);
#253=AXIS2_PLACEMENT_3D('MCS',#375,#287,#288);
#254=AXIS2_PLACEMENT_3D('PCS',#376,#289,#290);
#255=AXIS2_PLACEMENT_3D('CIP',#377,#291,#292);
#256=AXIS2_PLACEMENT_3D('',#378,#293,#294);
#257=AXIS2_PLACEMENT_3D('',#380,#295,#296);
#258=AXIS2_PLACEMENT_3D('',#381,#297,#298);
#259=AXIS2_PLACEMENT_3D('',#383,#299,#300);
#260=AXIS2_PLACEMENT_3D('',#384,#301,#302);
#261=AXIS2_PLACEMENT_3D('',#386,#303,#304);
#262=AXIS2_PLACEMENT_3D('',#387,#305,#306);
#263=AXIS2_PLACEMENT_3D('',#389,#307,#308);
#264=AXIS2_PLACEMENT_3D('',#390,#309,#310);
#265=AXIS2_PLACEMENT_3D('',#392,#311,#312);
#266=AXIS2_PLACEMENT_3D('',#393,#313,#314);
#267=AXIS2_PLACEMENT_3D('',#395,#315,#316);
#268=AXIS2_PLACEMENT_3D('',#396,#317,#318);
#269=AXIS2_PLACEMENT_3D('',#398,#319,#320);
#270=AXIS2_PLACEMENT_3D('',#399,#321,#322);
#271=AXIS2_PLACEMENT_3D('',#401,#323,#324);
#272=AXIS2_PLACEMENT_3D('',#402,#325,#326);
#273=AXIS2_PLACEMENT_3D('',#404,#327,#328);
#274=AXIS2_PLACEMENT_3D('',#405,#329,#330);
#275=AXIS2_PLACEMENT_3D('',#407,#331,#332);
#276=AXIS2_PLACEMENT_3D('',#408,#333,#334);
#277=AXIS2_PLACEMENT_3D('',#409,#335,#336);
#278=AXIS2_PLACEMENT_3D('',#411,#337,#338);
#279=AXIS2_PLACEMENT_3D('',#412,#339,#340);
#280=AXIS2_PLACEMENT_3D('',#442,#341,#342);
#281=AXIS2_PLACEMENT_3D('',#444,#343,#344);
#282=AXIS2_PLACEMENT_3D('',#445,#345,#346);
#283=AXIS2_PLACEMENT_3D('',#447,#347,#348);
#284=AXIS2_PLACEMENT_3D('',#448,#349,#350);
#285=DIRECTION('',(0.,0.,1.));
#286=DIRECTION('',(1.,0.,0.));
#287=DIRECTION('',(0.,0.,1.));
#288=DIRECTION('',(1.,0.,0.));
#289=DIRECTION('',(0.,0.,1.));
#290=DIRECTION('',(1.,0.,0.));
#291=DIRECTION('',(0.,0.,1.));
#292=DIRECTION('',(1.,0.,0.));
#293=DIRECTION('',(0.,0.,-1.));
#294=DIRECTION('',(-1.,0.,0.));
#295=DIRECTION('',(0.,0.,-1.));
#296=DIRECTION('',(1.,0.,0.));
#297=DIRECTION('',(0.,0.,-1.));
#298=DIRECTION('',(-1.,0.,0.));
#299=DIRECTION('',(0.,0.,-1.));
#300=DIRECTION('',(1.,0.,0.));
#301=DIRECTION('',(0.,0.,-1.));
#302=DIRECTION('',(-1.,0.,0.));
#303=DIRECTION('',(0.,0.,1.));
#304=DIRECTION('',(-1.,0.,0.));
#305=DIRECTION('',(0.,0.,-1.));
#306=DIRECTION('',(-1.,0.,0.));
#307=DIRECTION('',(0.,0.,-1.));
#308=DIRECTION('',(1.,0.,0.));
#309=DIRECTION('',(0.,0.,-1.));
#310=DIRECTION('',(-1.,0.,0.));
#311=DIRECTION('',(0.,0.,-1.));
#312=DIRECTION('',(1.,0.,5.50200920619976E-16));
#313=DIRECTION('',(0.,0.,-1.));
#314=DIRECTION('',(-1.,0.,0.));
#315=DIRECTION('',(0.,0.,-1.));
#316=DIRECTION('',(1.,0.,2.19315974717073E-16));
#317=DIRECTION('',(0.,0.,-1.));
#318=DIRECTION('',(-1.,0.,0.));
#319=DIRECTION('',(0.,0.,1.));
#320=DIRECTION('',(-1.,0.,0.));
#321=DIRECTION('',(0.,0.,-1.));
#322=DIRECTION('',(-1.,0.,0.));
#323=DIRECTION('',(0.,0.,-1.));
#324=DIRECTION('',(1.,0.,0.));
#325=DIRECTION('',(0.,0.,-1.));
#326=DIRECTION('',(-1.,0.,0.));
#327=DIRECTION('',(0.,0.,-1.));
#328=DIRECTION('',(1.,0.,0.));
#329=DIRECTION('',(0.,0.,-1.));
#330=DIRECTION('',(-1.,0.,0.));
#331=DIRECTION('',(0.,0.,-1.));
#332=DIRECTION('',(1.,0.,-4.14881548813586E-17));
#333=DIRECTION('',(0.,0.,1.));
#334=DIRECTION('',(-1.,0.,0.));
#335=DIRECTION('',(0.,0.,-1.));
#336=DIRECTION('',(-1.,0.,0.));
#337=DIRECTION('',(0.,0.,-1.));
#338=DIRECTION('',(1.,0.,0.));
#339=DIRECTION('',(0.,0.,-1.));
#340=DIRECTION('',(-1.,0.,0.));
#341=DIRECTION('',(0.,0.,-1.));
#342=DIRECTION('',(-1.,0.,0.));
#343=DIRECTION('',(0.,0.,-1.));
#344=DIRECTION('',(1.,0.,0.));
#345=DIRECTION('',(0.,0.,-1.));
#346=DIRECTION('',(1.,0.,0.));
#347=DIRECTION('',(0.,0.,-1.));
#348=DIRECTION('',(1.,0.,3.27236933571268E-16));
#349=DIRECTION('',(0.,0.,1.));
#350=DIRECTION('',(-1.,0.,0.));
#351=CARTESIAN_POINT('',(0.,0.,0.));
#352=CARTESIAN_POINT('',(0.,0.,0.));
#353=CARTESIAN_POINT('',(0.,0.,0.));
#354=CARTESIAN_POINT('',(0.,0.,-18.6));
#355=CARTESIAN_POINT('CRP',(-7.9375,0.,-18.6));
#356=CARTESIAN_POINT('',(-3.96875,0.,-18.6));
#357=CARTESIAN_POINT('',(-2.64583333333333,0.,-18.6));
#358=CARTESIAN_POINT('',(-1.32291666666667,0.,-18.6));
#359=CARTESIAN_POINT('',(0.,0.,-18.6));
#360=CARTESIAN_POINT('',(0.,0.,-14.63125));
#361=CARTESIAN_POINT('',(0.,0.,-10.6625));
#362=CARTESIAN_POINT('',(0.,0.,-6.69375));
#363=CARTESIAN_POINT('',(-2.36010782418553,0.,-6.69375));
#364=CARTESIAN_POINT('',(-4.72021564837106,0.,-6.69375));
#365=CARTESIAN_POINT('',(-7.08032347255659,0.,-6.69375));
#366=CARTESIAN_POINT('',(-7.36407022471211,0.,-9.93699021787613));
#367=CARTESIAN_POINT('',(-7.64781697686762,0.,-13.1802304357523));
#368=CARTESIAN_POINT('',(-7.93156372902313,0.,-16.4234706536284));
#369=CARTESIAN_POINT('',(-7.99303780589592,0.,-17.1261225675484));
#370=CARTESIAN_POINT('',(-7.6274742640097,0.,-17.7293323744203));
#371=CARTESIAN_POINT('',(-6.97613885830394,0.,-18.));
#372=CARTESIAN_POINT('',(-6.01985963455519,0.,-18.3973894626575));
#373=CARTESIAN_POINT('',(-5.00431184692405,0.,-18.6));
#374=CARTESIAN_POINT('',(-3.96875,0.,-18.6));
#375=CARTESIAN_POINT('',(0.,0.,0.));
#376=CARTESIAN_POINT('',(0.,0.,0.));
#377=CARTESIAN_POINT('',(0.,0.,-18.6));
#378=CARTESIAN_POINT('',(0.,0.,-6.69375));
#379=CARTESIAN_POINT('',(-7.75,0.,-6.69375));
#380=CARTESIAN_POINT('',(7.08032347255659,0.,-6.69375));
#381=CARTESIAN_POINT('',(0.,0.,0.));
#382=CARTESIAN_POINT('',(-7.75,0.,0.));
#383=CARTESIAN_POINT('',(0.,0.,28.));
#384=CARTESIAN_POINT('',(0.,0.,0.));
#385=CARTESIAN_POINT('',(-6.12405278839403,0.,0.));
#386=CARTESIAN_POINT('',(7.75,0.,0.));
#387=CARTESIAN_POINT('',(0.,0.,0.384644876365001));
#388=CARTESIAN_POINT('',(-5.72434762182978,0.,0.384644876365001));
#389=CARTESIAN_POINT('',(0.,0.,0.399999999999998));
#390=CARTESIAN_POINT('',(0.,0.,2.8));
#391=CARTESIAN_POINT('',(-5.63155903752234,0.,2.8));
#392=CARTESIAN_POINT('',(0.,0.,0.384644876365001));
#393=CARTESIAN_POINT('',(0.,0.,13.));
#394=CARTESIAN_POINT('',(-4.55949583781244,0.,13.));
#395=CARTESIAN_POINT('',(0.,0.,2.8));
#396=CARTESIAN_POINT('',(0.,0.,13.));
#397=CARTESIAN_POINT('',(-4.,0.,13.));
#398=CARTESIAN_POINT('',(4.55949583781244,0.,13.));
#399=CARTESIAN_POINT('',(0.,0.,13.5));
#400=CARTESIAN_POINT('',(-3.5,0.,13.5));
#401=CARTESIAN_POINT('',(0.,0.,13.5));
#402=CARTESIAN_POINT('',(0.,0.,16.5));
#403=CARTESIAN_POINT('',(-3.5,0.,16.5));
#404=CARTESIAN_POINT('',(0.,0.,28.));
#405=CARTESIAN_POINT('',(0.,0.,17.));
#406=CARTESIAN_POINT('',(-3.,0.,17.));
#407=CARTESIAN_POINT('',(0.,0.,16.5));
#408=CARTESIAN_POINT('',(3.,0.,17.));
#409=CARTESIAN_POINT('',(0.,0.,-18.6));
#410=CARTESIAN_POINT('',(-3.96875,0.,-18.6));
#411=CARTESIAN_POINT('',(0.,0.,-18.6));
#412=CARTESIAN_POINT('',(0.,0.,-18.));
#413=CARTESIAN_POINT('',(-6.97613885830395,0.,-18.));
#414=CARTESIAN_POINT('',(-3.96875,0.,-18.6));
#415=CARTESIAN_POINT('',(-3.96875,7.93750000000001,-18.6));
#416=CARTESIAN_POINT('',(3.96875,7.93750000000001,-18.6));
#417=CARTESIAN_POINT('',(3.96875,0.,-18.6));
#418=CARTESIAN_POINT('',(3.96875,-7.93750000000001,-18.6));
#419=CARTESIAN_POINT('',(-3.96875,-7.93750000000001,-18.6));
#420=CARTESIAN_POINT('',(-3.96875,0.,-18.6));
#421=CARTESIAN_POINT('',(-5.00431184692405,0.,-18.6));
#422=CARTESIAN_POINT('',(-5.00431184692405,10.0086236938481,-18.6));
#423=CARTESIAN_POINT('',(5.00431184692405,10.0086236938481,-18.6));
#424=CARTESIAN_POINT('',(5.00431184692405,0.,-18.6));
#425=CARTESIAN_POINT('',(5.00431184692405,-10.0086236938481,-18.6));
#426=CARTESIAN_POINT('',(-5.00431184692405,-10.0086236938481,-18.6));
#427=CARTESIAN_POINT('',(-5.00431184692405,0.,-18.6));
#428=CARTESIAN_POINT('',(-6.01985963455521,0.,-18.3973894626575));
#429=CARTESIAN_POINT('',(-6.01985963455521,12.0397192691104,-18.3973894626575));
#430=CARTESIAN_POINT('',(6.01985963455521,12.0397192691104,-18.3973894626575));
#431=CARTESIAN_POINT('',(6.01985963455521,0.,-18.3973894626575));
#432=CARTESIAN_POINT('',(6.01985963455521,-12.0397192691104,-18.3973894626575));
#433=CARTESIAN_POINT('',(-6.01985963455521,-12.0397192691104,-18.3973894626575));
#434=CARTESIAN_POINT('',(-6.01985963455521,0.,-18.3973894626575));
#435=CARTESIAN_POINT('',(-6.97613885830397,0.,-18.));
#436=CARTESIAN_POINT('',(-6.97613885830397,13.9522777166079,-18.));
#437=CARTESIAN_POINT('',(6.97613885830397,13.9522777166079,-18.));
#438=CARTESIAN_POINT('',(6.97613885830397,0.,-18.));
#439=CARTESIAN_POINT('',(6.97613885830397,-13.9522777166079,-18.));
#440=CARTESIAN_POINT('',(-6.97613885830397,-13.9522777166079,-18.));
#441=CARTESIAN_POINT('',(-6.97613885830397,0.,-18.));
#442=CARTESIAN_POINT('',(0.,0.,-16.4234706536284));
#443=CARTESIAN_POINT('',(-7.93156372902313,0.,-16.4234706536284));
#444=CARTESIAN_POINT('',(0.,0.,-16.5594336123147));
#445=CARTESIAN_POINT('',(0.,0.,-6.69375));
#446=CARTESIAN_POINT('',(7.08032347255659,0.,-6.69375));
#447=CARTESIAN_POINT('',(0.,0.,-16.4234706536284));
#448=CARTESIAN_POINT('',(0.,0.,-6.69375));
#449=MECHANICAL_DESIGN_GEOMETRIC_PRESENTATION_REPRESENTATION('',(#220,#221,
#222,#223,#224,#225,#226,#227,#228,#229),#450);
#450=(
GEOMETRIC_REPRESENTATION_CONTEXT(3)
GLOBAL_UNCERTAINTY_ASSIGNED_CONTEXT((#451))
GLOBAL_UNIT_ASSIGNED_CONTEXT((#457,#453,#452))
REPRESENTATION_CONTEXT('XHF780E16','TOP_LEVEL_ASSEMBLY_PART')
);
#451=UNCERTAINTY_MEASURE_WITH_UNIT(LENGTH_MEASURE(0.0254),#457,
'DISTANCE_ACCURACY_VALUE','Maximum Tolerance applied to model');
#452=(
NAMED_UNIT(*)
SI_UNIT($,.STERADIAN.)
SOLID_ANGLE_UNIT()
);
#453=(
CONVERSION_BASED_UNIT('DEGREE',#455)
NAMED_UNIT(#454)
PLANE_ANGLE_UNIT()
);
#454=DIMENSIONAL_EXPONENTS(0.,0.,0.,0.,0.,0.,0.);
#455=PLANE_ANGLE_MEASURE_WITH_UNIT(PLANE_ANGLE_MEASURE(0.0174532925),#456);
#456=(
NAMED_UNIT(*)
PLANE_ANGLE_UNIT()
SI_UNIT($,.RADIAN.)
);
#457=(
LENGTH_UNIT()
NAMED_UNIT(*)
SI_UNIT(.MILLI.,.METRE.)
);
ENDSEC;
END-ISO-10303-21;
