ISO-10303-21;
HEADER;
/* Generated by software containing ST-Developer
 * from STEP Tools, Inc. (www.steptools.com) 
 */
/* OPTION: using custom schema-name function */

FILE_DESCRIPTION(
/* description */ (''),
/* implementation_level */ '2;1');

FILE_NAME(
/* name */ 'XHF780E12.500D1HZ3_Basic.stp',
/* time_stamp */ '2022-07-03T16:40:15+05:00',
/* author */ (''),
/* organization */ (''),
/* preprocessor_version */ 'ST-DEVELOPER v16.7',
/* originating_system */ 'SIEMENS PLM Software NX 12.0',
/* authorisation */ '');

FILE_SCHEMA (('AUTOMOTIVE_DESIGN { 1 0 10303 214 3 1 1 1 }'));
ENDSEC;

DATA;
#10=CONSTRUCTIVE_GEOMETRY_REPRESENTATION_RELATIONSHIP(
'supplemental geometry','',#34,#11);
#11=CONSTRUCTIVE_GEOMETRY_REPRESENTATION('supplemental geometry',(#253,
#254,#255),#450);
#12=GEOMETRICALLY_BOUNDED_WIREFRAME_SHAPE_REPRESENTATION(
'inpu9A94AA24fxow-None',(#35),#450);
#13=PROPERTY_DEFINITION_REPRESENTATION(#17,#15);
#14=PROPERTY_DEFINITION_REPRESENTATION(#18,#16);
#15=REPRESENTATION('',(#19),#450);
#16=REPRESENTATION('',(#20),#450);
#17=PROPERTY_DEFINITION('pmi validation property','',#25);
#18=PROPERTY_DEFINITION('pmi validation property','',#25);
#19=VALUE_REPRESENTATION_ITEM('number of annotations',COUNT_MEASURE(0.));
#20=VALUE_REPRESENTATION_ITEM('number of views',COUNT_MEASURE(0.));
#21=SHAPE_REPRESENTATION_RELATIONSHIP('None',
'relationship between inpu9A94AA24fxow-None and inpu9A94AA24fxow-None',
#34,#23);
#22=SHAPE_REPRESENTATION_RELATIONSHIP('None',
'relationship between inpu9A94AA24fxow-None and inpu9A94AA24fxow-None',
#34,#12);
#23=ADVANCED_BREP_SHAPE_REPRESENTATION('inpu9A94AA24fxow-None',(#47,#48),
#450);
#24=SHAPE_DEFINITION_REPRESENTATION(#25,#34);
#25=PRODUCT_DEFINITION_SHAPE('','',#26);
#26=PRODUCT_DEFINITION(' ','',#28,#27);
#27=PRODUCT_DEFINITION_CONTEXT('part definition',#33,'design');
#28=PRODUCT_DEFINITION_FORMATION_WITH_SPECIFIED_SOURCE(' ',' ',#30,
 .NOT_KNOWN.);
#29=PRODUCT_RELATED_PRODUCT_CATEGORY('part','',(#30));
#30=PRODUCT('inpu9A94AA24fxow','inpu9A94AA24fxow',' ',(#31));
#31=PRODUCT_CONTEXT(' ',#33,'mechanical');
#32=APPLICATION_PROTOCOL_DEFINITION('international standard',
'automotive_design',2010,#33);
#33=APPLICATION_CONTEXT(
'core data for automotive mechanical design processes');
#34=SHAPE_REPRESENTATION('inpu9A94AA24fxow-None',(#252),#450);
#35=GEOMETRIC_CURVE_SET('None',(#352,#353,#354,#355,#217));
#36=(
BOUNDED_SURFACE()
B_SPLINE_SURFACE(3,3,((#420,#421,#422,#423,#424,#425,#426),(#427,#428,#429,
#430,#431,#432,#433),(#434,#435,#436,#437,#438,#439,#440),(#441,#442,#443,
#444,#445,#446,#447)),.UNSPECIFIED.,.F.,.T.,.F.)
B_SPLINE_SURFACE_WITH_KNOTS((4,4),(1,3,3,3,1),(0.,1.),(-0.5,0.,0.5,1.,1.5),
 .UNSPECIFIED.)
GEOMETRIC_REPRESENTATION_ITEM()
RATIONAL_B_SPLINE_SURFACE(((1.,0.333333333333333,0.333333333333333,1.,0.333333333333333,
0.333333333333333,1.),(0.986804981208797,0.328934993736266,0.328934993736266,
0.986804981208797,0.328934993736266,0.328934993736266,0.986804981208797),
(0.986804981208797,0.328934993736266,0.328934993736266,0.986804981208797,
0.328934993736266,0.328934993736266,0.986804981208797),(1.,0.333333333333333,
0.333333333333333,1.,0.333333333333333,0.333333333333333,1.)))
REPRESENTATION_ITEM('')
SURFACE()
);
#37=SURFACE_STYLE_USAGE(.BOTH.,#39);
#38=SURFACE_STYLE_USAGE(.BOTH.,#40);
#39=SURFACE_SIDE_STYLE('',(#41));
#40=SURFACE_SIDE_STYLE('',(#42));
#41=SURFACE_STYLE_FILL_AREA(#43);
#42=SURFACE_STYLE_FILL_AREA(#44);
#43=FILL_AREA_STYLE('',(#45));
#44=FILL_AREA_STYLE('',(#46));
#45=FILL_AREA_STYLE_COLOUR('',#250);
#46=FILL_AREA_STYLE_COLOUR('',#251);
#47=MANIFOLD_SOLID_BREP('NOCUT',#49);
#48=MANIFOLD_SOLID_BREP('CUT',#50);
#49=CLOSED_SHELL('',(#84,#85,#86,#87,#88,#89,#90,#91,#92,#93,#94));
#50=CLOSED_SHELL('',(#95,#96,#97,#98,#99));
#51=TOROIDAL_SURFACE('',#265,3.25,0.5);
#52=TOROIDAL_SURFACE('',#273,4.90361257567267,0.299999999999999);
#53=TOROIDAL_SURFACE('',#282,5.207,1.143);
#54=CYLINDRICAL_SURFACE('',#263,2.75);
#55=CYLINDRICAL_SURFACE('',#276,6.15);
#56=CONICAL_SURFACE('',#261,2.25,45.);
#57=CONICAL_SURFACE('',#269,3.75161489508634,5.99999999999999);
#58=CONICAL_SURFACE('',#271,4.51887581252578,2.20000000000005);
#59=CONICAL_SURFACE('',#280,5.65694180182932,4.99999999999999);
#60=FACE_BOUND('',#112,.T.);
#61=FACE_BOUND('',#113,.T.);
#62=FACE_BOUND('',#114,.T.);
#63=FACE_BOUND('',#115,.T.);
#64=FACE_BOUND('',#116,.T.);
#65=FACE_BOUND('',#117,.T.);
#66=FACE_BOUND('',#118,.T.);
#67=FACE_BOUND('',#119,.T.);
#68=FACE_BOUND('',#120,.T.);
#69=FACE_BOUND('',#121,.T.);
#70=FACE_BOUND('',#122,.T.);
#71=FACE_BOUND('',#123,.T.);
#72=FACE_BOUND('',#124,.T.);
#73=FACE_BOUND('',#125,.T.);
#74=FACE_BOUND('',#126,.T.);
#75=FACE_BOUND('',#127,.T.);
#76=FACE_BOUND('',#128,.T.);
#77=FACE_BOUND('',#129,.T.);
#78=FACE_BOUND('',#131,.T.);
#79=FACE_BOUND('',#132,.T.);
#80=FACE_BOUND('',#133,.T.);
#81=FACE_BOUND('',#134,.T.);
#82=FACE_BOUND('',#135,.T.);
#83=FACE_BOUND('',#136,.T.);
#84=ADVANCED_FACE('',(#106),#100,.F.);
#85=ADVANCED_FACE('',(#107),#101,.F.);
#86=ADVANCED_FACE('',(#60,#61),#56,.T.);
#87=ADVANCED_FACE('',(#62,#63),#54,.T.);
#88=ADVANCED_FACE('',(#64,#65),#51,.F.);
#89=ADVANCED_FACE('',(#66,#67),#102,.F.);
#90=ADVANCED_FACE('',(#68,#69),#57,.T.);
#91=ADVANCED_FACE('',(#70,#71),#58,.T.);
#92=ADVANCED_FACE('',(#72,#73),#52,.F.);
#93=ADVANCED_FACE('',(#74,#75),#103,.F.);
#94=ADVANCED_FACE('',(#76,#77),#55,.T.);
#95=ADVANCED_FACE('',(#108),#104,.T.);
#96=ADVANCED_FACE('',(#78,#79),#59,.T.);
#97=ADVANCED_FACE('',(#80,#81),#53,.T.);
#98=ADVANCED_FACE('',(#82,#83),#36,.T.);
#99=ADVANCED_FACE('',(#109),#105,.F.);
#100=PLANE('',#257);
#101=PLANE('',#259);
#102=PLANE('',#267);
#103=PLANE('',#275);
#104=PLANE('',#278);
#105=PLANE('',#284);
#106=FACE_OUTER_BOUND('',#110,.T.);
#107=FACE_OUTER_BOUND('',#111,.T.);
#108=FACE_OUTER_BOUND('',#130,.T.);
#109=FACE_OUTER_BOUND('',#137,.T.);
#110=EDGE_LOOP('',(#138));
#111=EDGE_LOOP('',(#139));
#112=EDGE_LOOP('',(#140));
#113=EDGE_LOOP('',(#141));
#114=EDGE_LOOP('',(#142));
#115=EDGE_LOOP('',(#143));
#116=EDGE_LOOP('',(#144));
#117=EDGE_LOOP('',(#145));
#118=EDGE_LOOP('',(#146));
#119=EDGE_LOOP('',(#147));
#120=EDGE_LOOP('',(#148));
#121=EDGE_LOOP('',(#149));
#122=EDGE_LOOP('',(#150));
#123=EDGE_LOOP('',(#151));
#124=EDGE_LOOP('',(#152));
#125=EDGE_LOOP('',(#153));
#126=EDGE_LOOP('',(#154));
#127=EDGE_LOOP('',(#155));
#128=EDGE_LOOP('',(#156));
#129=EDGE_LOOP('',(#157));
#130=EDGE_LOOP('',(#158));
#131=EDGE_LOOP('',(#159));
#132=EDGE_LOOP('',(#160));
#133=EDGE_LOOP('',(#161));
#134=EDGE_LOOP('',(#162));
#135=EDGE_LOOP('',(#163));
#136=EDGE_LOOP('',(#164));
#137=EDGE_LOOP('',(#165));
#138=ORIENTED_EDGE('',*,*,#180,.T.);
#139=ORIENTED_EDGE('',*,*,#181,.F.);
#140=ORIENTED_EDGE('',*,*,#182,.F.);
#141=ORIENTED_EDGE('',*,*,#181,.T.);
#142=ORIENTED_EDGE('',*,*,#183,.F.);
#143=ORIENTED_EDGE('',*,*,#182,.T.);
#144=ORIENTED_EDGE('',*,*,#184,.F.);
#145=ORIENTED_EDGE('',*,*,#183,.T.);
#146=ORIENTED_EDGE('',*,*,#185,.F.);
#147=ORIENTED_EDGE('',*,*,#184,.T.);
#148=ORIENTED_EDGE('',*,*,#186,.F.);
#149=ORIENTED_EDGE('',*,*,#185,.T.);
#150=ORIENTED_EDGE('',*,*,#187,.F.);
#151=ORIENTED_EDGE('',*,*,#186,.T.);
#152=ORIENTED_EDGE('',*,*,#188,.F.);
#153=ORIENTED_EDGE('',*,*,#187,.T.);
#154=ORIENTED_EDGE('',*,*,#189,.F.);
#155=ORIENTED_EDGE('',*,*,#188,.T.);
#156=ORIENTED_EDGE('',*,*,#180,.F.);
#157=ORIENTED_EDGE('',*,*,#189,.T.);
#158=ORIENTED_EDGE('',*,*,#190,.T.);
#159=ORIENTED_EDGE('',*,*,#191,.F.);
#160=ORIENTED_EDGE('',*,*,#190,.F.);
#161=ORIENTED_EDGE('',*,*,#192,.F.);
#162=ORIENTED_EDGE('',*,*,#191,.T.);
#163=ORIENTED_EDGE('',*,*,#192,.T.);
#164=ORIENTED_EDGE('',*,*,#193,.F.);
#165=ORIENTED_EDGE('',*,*,#193,.T.);
#166=VERTEX_POINT('',#379);
#167=VERTEX_POINT('',#382);
#168=VERTEX_POINT('',#385);
#169=VERTEX_POINT('',#388);
#170=VERTEX_POINT('',#391);
#171=VERTEX_POINT('',#394);
#172=VERTEX_POINT('',#397);
#173=VERTEX_POINT('',#400);
#174=VERTEX_POINT('',#403);
#175=VERTEX_POINT('',#406);
#176=VERTEX_POINT('',#410);
#177=VERTEX_POINT('',#413);
#178=VERTEX_POINT('',#416);
#179=VERTEX_POINT('',#419);
#180=EDGE_CURVE('',#166,#166,#194,.T.);
#181=EDGE_CURVE('',#167,#167,#195,.T.);
#182=EDGE_CURVE('',#168,#168,#196,.T.);
#183=EDGE_CURVE('',#169,#169,#197,.T.);
#184=EDGE_CURVE('',#170,#170,#198,.T.);
#185=EDGE_CURVE('',#171,#171,#199,.T.);
#186=EDGE_CURVE('',#172,#172,#200,.T.);
#187=EDGE_CURVE('',#173,#173,#201,.T.);
#188=EDGE_CURVE('',#174,#174,#202,.T.);
#189=EDGE_CURVE('',#175,#175,#203,.T.);
#190=EDGE_CURVE('',#176,#176,#204,.T.);
#191=EDGE_CURVE('',#177,#177,#205,.T.);
#192=EDGE_CURVE('',#178,#178,#206,.T.);
#193=EDGE_CURVE('',#179,#179,#207,.T.);
#194=CIRCLE('',#256,6.15);
#195=CIRCLE('',#258,2.25);
#196=CIRCLE('',#260,2.75);
#197=CIRCLE('',#262,2.75);
#198=CIRCLE('',#264,3.25);
#199=CIRCLE('',#266,3.75161489508634);
#200=CIRCLE('',#268,4.51887581252578);
#201=CIRCLE('',#270,4.60383370074949);
#202=CIRCLE('',#272,4.90361257567267);
#203=CIRCLE('',#274,6.15);
#204=CIRCLE('',#277,5.65694180182932);
#205=CIRCLE('',#279,6.34565053991886);
#206=CIRCLE('',#281,5.65060886683851);
#207=CIRCLE('',#283,3.175);
#208=CURVE_STYLE('',#213,POSITIVE_LENGTH_MEASURE(0.18),#212);
#209=CURVE_STYLE('',#214,POSITIVE_LENGTH_MEASURE(0.18),#248);
#210=CURVE_STYLE('',#215,POSITIVE_LENGTH_MEASURE(0.18),#248);
#211=CURVE_STYLE('',#216,POSITIVE_LENGTH_MEASURE(0.18),#248);
#212=DRAUGHTING_PRE_DEFINED_COLOUR('blue');
#213=DRAUGHTING_PRE_DEFINED_CURVE_FONT('continuous');
#214=DRAUGHTING_PRE_DEFINED_CURVE_FONT('continuous');
#215=DRAUGHTING_PRE_DEFINED_CURVE_FONT('continuous');
#216=DRAUGHTING_PRE_DEFINED_CURVE_FONT('continuous');
#217=TRIMMED_CURVE('CUTTING PART LINE',#218,(PARAMETER_VALUE(0.)),(
PARAMETER_VALUE(1.)),.T.,.PARAMETER.);
#218=(
BOUNDED_CURVE()
B_SPLINE_CURVE(3,(#356,#357,#358,#359,#360,#361,#362,#363,#364,#365,#366,
#367,#368,#369,#370,#371,#372,#373,#374),.UNSPECIFIED.,.T.,.F.)
B_SPLINE_CURVE_WITH_KNOTS((4,3,3,3,3,3,4),(0.,0.337488672204709,0.449984896272945,
0.539471543509273,0.586544337014662,0.827502276799935,1.),.UNSPECIFIED.)
CURVE()
GEOMETRIC_REPRESENTATION_ITEM()
RATIONAL_B_SPLINE_CURVE((1.,1.,1.,1.,1.,1.,1.,0.986804981208798,0.986804981208798,
1.,0.872119721370142,0.872119721370142,1.,1.,1.,1.,1.,1.,1.))
REPRESENTATION_ITEM('CUTTING PART LINE')
);
#219=PRESENTATION_LAYER_ASSIGNMENT('1','Layer 1',(#352,#353,#354,#355,#217,
#253,#254,#255,#47,#48));
#220=STYLED_ITEM('',(#230),#352);
#221=STYLED_ITEM('',(#231),#353);
#222=STYLED_ITEM('',(#232),#354);
#223=STYLED_ITEM('',(#233),#355);
#224=STYLED_ITEM('',(#234),#217);
#225=STYLED_ITEM('',(#235),#253);
#226=STYLED_ITEM('',(#236),#254);
#227=STYLED_ITEM('',(#237),#255);
#228=STYLED_ITEM('',(#238),#47);
#229=STYLED_ITEM('',(#239),#48);
#230=PRESENTATION_STYLE_ASSIGNMENT((#240));
#231=PRESENTATION_STYLE_ASSIGNMENT((#241));
#232=PRESENTATION_STYLE_ASSIGNMENT((#242));
#233=PRESENTATION_STYLE_ASSIGNMENT((#243));
#234=PRESENTATION_STYLE_ASSIGNMENT((#208));
#235=PRESENTATION_STYLE_ASSIGNMENT((#209));
#236=PRESENTATION_STYLE_ASSIGNMENT((#210));
#237=PRESENTATION_STYLE_ASSIGNMENT((#211));
#238=PRESENTATION_STYLE_ASSIGNMENT((#37));
#239=PRESENTATION_STYLE_ASSIGNMENT((#38));
#240=POINT_STYLE('',#244,POSITIVE_LENGTH_MEASURE(3.),#248);
#241=POINT_STYLE('',#245,POSITIVE_LENGTH_MEASURE(3.),#248);
#242=POINT_STYLE('',#246,POSITIVE_LENGTH_MEASURE(3.),#248);
#243=POINT_STYLE('',#247,POSITIVE_LENGTH_MEASURE(3.),#249);
#244=PRE_DEFINED_POINT_MARKER_SYMBOL('plus');
#245=PRE_DEFINED_POINT_MARKER_SYMBOL('plus');
#246=PRE_DEFINED_POINT_MARKER_SYMBOL('plus');
#247=PRE_DEFINED_POINT_MARKER_SYMBOL('plus');
#248=COLOUR_RGB('Pale Maroon',0.811749446860456,0.603921568627451,0.611749446860456);
#249=COLOUR_RGB('Medium Royal',0.2,0.4,0.8);
#250=COLOUR_RGB('Medium Gray',0.490196078431373,0.490196078431373,0.490196078431373);
#251=COLOUR_RGB('Light Gray',0.8,0.8,0.8);
#252=AXIS2_PLACEMENT_3D('',#351,#285,#286);
#253=AXIS2_PLACEMENT_3D('MCS',#375,#287,#288);
#254=AXIS2_PLACEMENT_3D('PCS',#376,#289,#290);
#255=AXIS2_PLACEMENT_3D('CIP',#377,#291,#292);
#256=AXIS2_PLACEMENT_3D('',#378,#293,#294);
#257=AXIS2_PLACEMENT_3D('',#380,#295,#296);
#258=AXIS2_PLACEMENT_3D('',#381,#297,#298);
#259=AXIS2_PLACEMENT_3D('',#383,#299,#300);
#260=AXIS2_PLACEMENT_3D('',#384,#301,#302);
#261=AXIS2_PLACEMENT_3D('',#386,#303,#304);
#262=AXIS2_PLACEMENT_3D('',#387,#305,#306);
#263=AXIS2_PLACEMENT_3D('',#389,#307,#308);
#264=AXIS2_PLACEMENT_3D('',#390,#309,#310);
#265=AXIS2_PLACEMENT_3D('',#392,#311,#312);
#266=AXIS2_PLACEMENT_3D('',#393,#313,#314);
#267=AXIS2_PLACEMENT_3D('',#395,#315,#316);
#268=AXIS2_PLACEMENT_3D('',#396,#317,#318);
#269=AXIS2_PLACEMENT_3D('',#398,#319,#320);
#270=AXIS2_PLACEMENT_3D('',#399,#321,#322);
#271=AXIS2_PLACEMENT_3D('',#401,#323,#324);
#272=AXIS2_PLACEMENT_3D('',#402,#325,#326);
#273=AXIS2_PLACEMENT_3D('',#404,#327,#328);
#274=AXIS2_PLACEMENT_3D('',#405,#329,#330);
#275=AXIS2_PLACEMENT_3D('',#407,#331,#332);
#276=AXIS2_PLACEMENT_3D('',#408,#333,#334);
#277=AXIS2_PLACEMENT_3D('',#409,#335,#336);
#278=AXIS2_PLACEMENT_3D('',#411,#337,#338);
#279=AXIS2_PLACEMENT_3D('',#412,#339,#340);
#280=AXIS2_PLACEMENT_3D('',#414,#341,#342);
#281=AXIS2_PLACEMENT_3D('',#415,#343,#344);
#282=AXIS2_PLACEMENT_3D('',#417,#345,#346);
#283=AXIS2_PLACEMENT_3D('',#418,#347,#348);
#284=AXIS2_PLACEMENT_3D('',#448,#349,#350);
#285=DIRECTION('',(0.,0.,1.));
#286=DIRECTION('',(1.,0.,0.));
#287=DIRECTION('',(0.,0.,1.));
#288=DIRECTION('',(1.,0.,0.));
#289=DIRECTION('',(0.,0.,1.));
#290=DIRECTION('',(1.,0.,0.));
#291=DIRECTION('',(0.,0.,1.));
#292=DIRECTION('',(1.,0.,0.));
#293=DIRECTION('',(0.,0.,-1.));
#294=DIRECTION('',(-1.,0.,0.));
#295=DIRECTION('',(0.,0.,1.));
#296=DIRECTION('',(-1.,0.,0.));
#297=DIRECTION('',(0.,0.,-1.));
#298=DIRECTION('',(-1.,0.,0.));
#299=DIRECTION('',(0.,0.,-1.));
#300=DIRECTION('',(1.,0.,0.));
#301=DIRECTION('',(0.,0.,-1.));
#302=DIRECTION('',(-1.,0.,0.));
#303=DIRECTION('',(0.,0.,-1.));
#304=DIRECTION('',(1.,0.,3.28857530990864E-17));
#305=DIRECTION('',(0.,0.,-1.));
#306=DIRECTION('',(-1.,0.,0.));
#307=DIRECTION('',(0.,0.,-1.));
#308=DIRECTION('',(1.,0.,0.));
#309=DIRECTION('',(0.,0.,-1.));
#310=DIRECTION('',(-1.,0.,0.));
#311=DIRECTION('',(0.,0.,-1.));
#312=DIRECTION('',(1.,0.,0.));
#313=DIRECTION('',(0.,0.,-1.));
#314=DIRECTION('',(-1.,0.,0.));
#315=DIRECTION('',(0.,0.,-1.));
#316=DIRECTION('',(1.,0.,0.));
#317=DIRECTION('',(0.,0.,-1.));
#318=DIRECTION('',(-1.,0.,0.));
#319=DIRECTION('',(0.,0.,-1.));
#320=DIRECTION('',(1.,0.,2.7091147648981E-16));
#321=DIRECTION('',(0.,0.,-1.));
#322=DIRECTION('',(-1.,0.,0.));
#323=DIRECTION('',(0.,0.,-1.));
#324=DIRECTION('',(1.,0.,-1.21210442099151E-15));
#325=DIRECTION('',(0.,0.,-1.));
#326=DIRECTION('',(-1.,0.,0.));
#327=DIRECTION('',(0.,0.,-1.));
#328=DIRECTION('',(1.,0.,0.));
#329=DIRECTION('',(0.,0.,-1.));
#330=DIRECTION('',(-1.,0.,0.));
#331=DIRECTION('',(0.,0.,-1.));
#332=DIRECTION('',(1.,0.,0.));
#333=DIRECTION('',(0.,0.,-1.));
#334=DIRECTION('',(1.,0.,0.));
#335=DIRECTION('',(0.,0.,1.));
#336=DIRECTION('',(1.,0.,0.));
#337=DIRECTION('',(0.,0.,1.));
#338=DIRECTION('',(-1.,0.,0.));
#339=DIRECTION('',(0.,0.,-1.));
#340=DIRECTION('',(-1.,0.,0.));
#341=DIRECTION('',(0.,0.,-1.));
#342=DIRECTION('',(1.,0.,4.09723210635668E-16));
#343=DIRECTION('',(0.,0.,-1.));
#344=DIRECTION('',(-1.,0.,0.));
#345=DIRECTION('',(0.,0.,-1.));
#346=DIRECTION('',(1.,0.,0.));
#347=DIRECTION('',(0.,0.,-1.));
#348=DIRECTION('',(-1.,0.,0.));
#349=DIRECTION('',(0.,0.,1.));
#350=DIRECTION('',(-1.,0.,0.));
#351=CARTESIAN_POINT('',(0.,0.,0.));
#352=CARTESIAN_POINT('',(0.,0.,0.));
#353=CARTESIAN_POINT('',(0.,0.,0.));
#354=CARTESIAN_POINT('',(0.,0.,-14.4));
#355=CARTESIAN_POINT('CRP',(-6.35,0.,-14.4));
#356=CARTESIAN_POINT('',(0.,0.,-4.875));
#357=CARTESIAN_POINT('',(0.,0.,-8.05));
#358=CARTESIAN_POINT('',(0.,0.,-11.225));
#359=CARTESIAN_POINT('',(0.,0.,-14.4));
#360=CARTESIAN_POINT('',(-1.05833333333333,0.,-14.4));
#361=CARTESIAN_POINT('',(-2.11666666666667,0.,-14.4));
#362=CARTESIAN_POINT('',(-3.175,0.,-14.4));
#363=CARTESIAN_POINT('',(-4.02812257269365,0.,-14.4));
#364=CARTESIAN_POINT('',(-4.86435969282046,0.,-14.2311047574339));
#365=CARTESIAN_POINT('',(-5.65060886683852,0.,-13.9));
#366=CARTESIAN_POINT('',(-6.1248462985737,0.,-13.7002894311503));
#367=CARTESIAN_POINT('',(-6.39049853876093,0.,-13.2595918701716));
#368=CARTESIAN_POINT('',(-6.34565053991887,0.,-12.7469768977323));
#369=CARTESIAN_POINT('',(-6.11608096055587,0.,-10.1229845984882));
#370=CARTESIAN_POINT('',(-5.8865113811925,0.,-7.49899229924411));
#371=CARTESIAN_POINT('',(-5.65694180182932,0.,-4.875));
#372=CARTESIAN_POINT('',(-3.77129453455288,0.,-4.875));
#373=CARTESIAN_POINT('',(-1.88564726727644,0.,-4.875));
#374=CARTESIAN_POINT('',(0.,0.,-4.875));
#375=CARTESIAN_POINT('',(0.,0.,0.));
#376=CARTESIAN_POINT('',(0.,0.,0.));
#377=CARTESIAN_POINT('',(0.,0.,-14.4));
#378=CARTESIAN_POINT('',(0.,0.,-4.875));
#379=CARTESIAN_POINT('',(-6.15,0.,-4.875));
#380=CARTESIAN_POINT('',(6.15,0.,-4.875));
#381=CARTESIAN_POINT('',(0.,0.,13.8));
#382=CARTESIAN_POINT('',(-2.25,0.,13.8));
#383=CARTESIAN_POINT('',(0.,0.,13.8));
#384=CARTESIAN_POINT('',(0.,0.,13.3));
#385=CARTESIAN_POINT('',(-2.75,0.,13.3));
#386=CARTESIAN_POINT('',(0.,0.,13.8));
#387=CARTESIAN_POINT('',(0.,0.,10.3));
#388=CARTESIAN_POINT('',(-2.75,0.,10.3));
#389=CARTESIAN_POINT('',(0.,0.,24.));
#390=CARTESIAN_POINT('',(0.,0.,9.8));
#391=CARTESIAN_POINT('',(-3.25,0.,9.8));
#392=CARTESIAN_POINT('',(0.,0.,10.3));
#393=CARTESIAN_POINT('',(0.,0.,9.8));
#394=CARTESIAN_POINT('',(-3.75161489508634,0.,9.8));
#395=CARTESIAN_POINT('',(3.25,0.,9.8));
#396=CARTESIAN_POINT('',(0.,0.,2.5));
#397=CARTESIAN_POINT('',(-4.51887581252578,0.,2.5));
#398=CARTESIAN_POINT('',(0.,0.,9.8));
#399=CARTESIAN_POINT('',(0.,0.,0.2884836572737));
#400=CARTESIAN_POINT('',(-4.60383370074949,0.,0.2884836572737));
#401=CARTESIAN_POINT('',(0.,0.,2.5));
#402=CARTESIAN_POINT('',(0.,0.,0.));
#403=CARTESIAN_POINT('',(-4.90361257567267,0.,0.));
#404=CARTESIAN_POINT('',(0.,0.,0.300000000000002));
#405=CARTESIAN_POINT('',(0.,0.,0.));
#406=CARTESIAN_POINT('',(-6.15,0.,0.));
#407=CARTESIAN_POINT('',(4.90361257567267,0.,0.));
#408=CARTESIAN_POINT('',(0.,0.,24.));
#409=CARTESIAN_POINT('',(0.,0.,-4.875));
#410=CARTESIAN_POINT('',(5.65694180182932,0.,-4.875));
#411=CARTESIAN_POINT('',(0.,0.,-4.875));
#412=CARTESIAN_POINT('',(0.,0.,-12.7469768977323));
#413=CARTESIAN_POINT('',(-6.34565053991886,0.,-12.7469768977323));
#414=CARTESIAN_POINT('',(0.,0.,-4.875));
#415=CARTESIAN_POINT('',(0.,0.,-13.9));
#416=CARTESIAN_POINT('',(-5.65060886683851,0.,-13.9));
#417=CARTESIAN_POINT('',(0.,0.,-12.8465959116928));
#418=CARTESIAN_POINT('',(0.,0.,-14.4));
#419=CARTESIAN_POINT('',(-3.175,0.,-14.4));
#420=CARTESIAN_POINT('',(-3.175,0.,-14.4));
#421=CARTESIAN_POINT('',(-3.175,6.35,-14.4));
#422=CARTESIAN_POINT('',(3.175,6.35,-14.4));
#423=CARTESIAN_POINT('',(3.175,0.,-14.4));
#424=CARTESIAN_POINT('',(3.175,-6.35,-14.4));
#425=CARTESIAN_POINT('',(-3.175,-6.35,-14.4));
#426=CARTESIAN_POINT('',(-3.175,0.,-14.4));
#427=CARTESIAN_POINT('',(-4.02812257269365,0.,-14.4));
#428=CARTESIAN_POINT('',(-4.02812257269365,8.0562451453873,-14.4));
#429=CARTESIAN_POINT('',(4.02812257269365,8.0562451453873,-14.4));
#430=CARTESIAN_POINT('',(4.02812257269365,0.,-14.4));
#431=CARTESIAN_POINT('',(4.02812257269365,-8.0562451453873,-14.4));
#432=CARTESIAN_POINT('',(-4.02812257269365,-8.0562451453873,-14.4));
#433=CARTESIAN_POINT('',(-4.02812257269365,0.,-14.4));
#434=CARTESIAN_POINT('',(-4.86435969282047,0.,-14.2311047574339));
#435=CARTESIAN_POINT('',(-4.86435969282047,9.72871938564094,-14.2311047574339));
#436=CARTESIAN_POINT('',(4.86435969282047,9.72871938564094,-14.2311047574339));
#437=CARTESIAN_POINT('',(4.86435969282047,0.,-14.2311047574339));
#438=CARTESIAN_POINT('',(4.86435969282047,-9.72871938564094,-14.2311047574339));
#439=CARTESIAN_POINT('',(-4.86435969282047,-9.72871938564094,-14.2311047574339));
#440=CARTESIAN_POINT('',(-4.86435969282047,0.,-14.2311047574339));
#441=CARTESIAN_POINT('',(-5.65060886683852,0.,-13.9));
#442=CARTESIAN_POINT('',(-5.65060886683852,11.301217733677,-13.9));
#443=CARTESIAN_POINT('',(5.65060886683852,11.301217733677,-13.9));
#444=CARTESIAN_POINT('',(5.65060886683852,0.,-13.9));
#445=CARTESIAN_POINT('',(5.65060886683852,-11.301217733677,-13.9));
#446=CARTESIAN_POINT('',(-5.65060886683852,-11.301217733677,-13.9));
#447=CARTESIAN_POINT('',(-5.65060886683852,0.,-13.9));
#448=CARTESIAN_POINT('',(3.175,0.,-14.4));
#449=MECHANICAL_DESIGN_GEOMETRIC_PRESENTATION_REPRESENTATION('',(#220,#221,
#222,#223,#224,#225,#226,#227,#228,#229),#450);
#450=(
GEOMETRIC_REPRESENTATION_CONTEXT(3)
GLOBAL_UNCERTAINTY_ASSIGNED_CONTEXT((#451))
GLOBAL_UNIT_ASSIGNED_CONTEXT((#457,#453,#452))
REPRESENTATION_CONTEXT('XHF780E12','TOP_LEVEL_ASSEMBLY_PART')
);
#451=UNCERTAINTY_MEASURE_WITH_UNIT(LENGTH_MEASURE(0.0254),#457,
'DISTANCE_ACCURACY_VALUE','Maximum Tolerance applied to model');
#452=(
NAMED_UNIT(*)
SI_UNIT($,.STERADIAN.)
SOLID_ANGLE_UNIT()
);
#453=(
CONVERSION_BASED_UNIT('DEGREE',#455)
NAMED_UNIT(#454)
PLANE_ANGLE_UNIT()
);
#454=DIMENSIONAL_EXPONENTS(0.,0.,0.,0.,0.,0.,0.);
#455=PLANE_ANGLE_MEASURE_WITH_UNIT(PLANE_ANGLE_MEASURE(0.0174532925),#456);
#456=(
NAMED_UNIT(*)
PLANE_ANGLE_UNIT()
SI_UNIT($,.RADIAN.)
);
#457=(
LENGTH_UNIT()
NAMED_UNIT(*)
SI_UNIT(.MILLI.,.METRE.)
);
ENDSEC;
END-ISO-10303-21;
