ISO-10303-21;
HEADER;
/* Generated by software containing ST-Developer
 * from STEP Tools, Inc. (www.steptools.com) 
 */
/* OPTION: using custom schema-name function */

FILE_DESCRIPTION(
/* description */ (''),
/* implementation_level */ '2;1');

FILE_NAME(
/* name */ 'XHF780E10.375D1HZ3_Basic.stp',
/* time_stamp */ '2022-07-03T16:28:28+06:00',
/* author */ (''),
/* organization */ (''),
/* preprocessor_version */ 'ST-DEVELOPER v16.7',
/* originating_system */ 'SIEMENS PLM Software NX 12.0',
/* authorisation */ '');

FILE_SCHEMA (('AUTOMOTIVE_DESIGN { 1 0 10303 214 3 1 1 1 }'));
ENDSEC;

DATA;
#10=CONSTRUCTIVE_GEOMETRY_REPRESENTATION_RELATIONSHIP(
'supplemental geometry','',#34,#11);
#11=CONSTRUCTIVE_GEOMETRY_REPRESENTATION('supplemental geometry',(#253,
#254,#255),#450);
#12=GEOMETRICALLY_BOUNDED_WIREFRAME_SHAPE_REPRESENTATION(
'inpu9A94AA24fxnr-None',(#35),#450);
#13=PROPERTY_DEFINITION_REPRESENTATION(#17,#15);
#14=PROPERTY_DEFINITION_REPRESENTATION(#18,#16);
#15=REPRESENTATION('',(#19),#450);
#16=REPRESENTATION('',(#20),#450);
#17=PROPERTY_DEFINITION('pmi validation property','',#25);
#18=PROPERTY_DEFINITION('pmi validation property','',#25);
#19=VALUE_REPRESENTATION_ITEM('number of annotations',COUNT_MEASURE(0.));
#20=VALUE_REPRESENTATION_ITEM('number of views',COUNT_MEASURE(0.));
#21=SHAPE_REPRESENTATION_RELATIONSHIP('None',
'relationship between inpu9A94AA24fxnr-None and inpu9A94AA24fxnr-None',
#34,#23);
#22=SHAPE_REPRESENTATION_RELATIONSHIP('None',
'relationship between inpu9A94AA24fxnr-None and inpu9A94AA24fxnr-None',
#34,#12);
#23=ADVANCED_BREP_SHAPE_REPRESENTATION('inpu9A94AA24fxnr-None',(#47,#48),
#450);
#24=SHAPE_DEFINITION_REPRESENTATION(#25,#34);
#25=PRODUCT_DEFINITION_SHAPE('','',#26);
#26=PRODUCT_DEFINITION(' ','',#28,#27);
#27=PRODUCT_DEFINITION_CONTEXT('part definition',#33,'design');
#28=PRODUCT_DEFINITION_FORMATION_WITH_SPECIFIED_SOURCE(' ',' ',#30,
 .NOT_KNOWN.);
#29=PRODUCT_RELATED_PRODUCT_CATEGORY('part','',(#30));
#30=PRODUCT('inpu9A94AA24fxnr','inpu9A94AA24fxnr',' ',(#31));
#31=PRODUCT_CONTEXT(' ',#33,'mechanical');
#32=APPLICATION_PROTOCOL_DEFINITION('international standard',
'automotive_design',2010,#33);
#33=APPLICATION_CONTEXT(
'core data for automotive mechanical design processes');
#34=SHAPE_REPRESENTATION('inpu9A94AA24fxnr-None',(#252),#450);
#35=GEOMETRIC_CURVE_SET('None',(#352,#353,#354,#355,#217));
#36=(
BOUNDED_SURFACE()
B_SPLINE_SURFACE(3,3,((#414,#415,#416,#417,#418,#419,#420),(#421,#422,#423,
#424,#425,#426,#427),(#428,#429,#430,#431,#432,#433,#434),(#435,#436,#437,
#438,#439,#440,#441)),.UNSPECIFIED.,.F.,.T.,.F.)
B_SPLINE_SURFACE_WITH_KNOTS((4,4),(1,3,3,3,1),(0.,1.),(-0.5,0.,0.5,1.,1.5),
 .UNSPECIFIED.)
GEOMETRIC_REPRESENTATION_ITEM()
RATIONAL_B_SPLINE_SURFACE(((1.,0.333333333333333,0.333333333333333,1.,0.333333333333333,
0.333333333333333,1.),(0.983387315707171,0.32779577190239,0.32779577190239,
0.983387315707171,0.32779577190239,0.32779577190239,0.983387315707171),
(0.983387315707171,0.32779577190239,0.32779577190239,0.983387315707171,
0.32779577190239,0.32779577190239,0.983387315707171),(1.,0.333333333333333,
0.333333333333333,1.,0.333333333333333,0.333333333333333,1.)))
REPRESENTATION_ITEM('')
SURFACE()
);
#37=SURFACE_STYLE_USAGE(.BOTH.,#39);
#38=SURFACE_STYLE_USAGE(.BOTH.,#40);
#39=SURFACE_SIDE_STYLE('',(#41));
#40=SURFACE_SIDE_STYLE('',(#42));
#41=SURFACE_STYLE_FILL_AREA(#43);
#42=SURFACE_STYLE_FILL_AREA(#44);
#43=FILL_AREA_STYLE('',(#45));
#44=FILL_AREA_STYLE('',(#46));
#45=FILL_AREA_STYLE_COLOUR('',#250);
#46=FILL_AREA_STYLE_COLOUR('',#251);
#47=MANIFOLD_SOLID_BREP('NOCUT',#49);
#48=MANIFOLD_SOLID_BREP('CUT',#50);
#49=CLOSED_SHELL('',(#64,#65,#66,#67,#68,#69,#70,#71,#72,#73,#74));
#50=CLOSED_SHELL('',(#75,#76,#77,#78,#79));
#51=FACE_OUTER_BOUND('',#126,.T.);
#52=FACE_OUTER_BOUND('',#127,.T.);
#53=FACE_OUTER_BOUND('',#130,.T.);
#54=FACE_OUTER_BOUND('',#137,.T.);
#55=CYLINDRICAL_SURFACE('',#270,2.2);
#56=CYLINDRICAL_SURFACE('',#276,4.625);
#57=CONICAL_SURFACE('',#262,3.61383370074949,2.20000000000007);
#58=CONICAL_SURFACE('',#264,3.54424226251891,6.00000000000001);
#59=CONICAL_SURFACE('',#272,2.2,45.);
#60=CONICAL_SURFACE('',#283,4.75979443034323,4.99999999999995);
#61=TOROIDAL_SURFACE('',#260,3.91361257567267,0.3);
#62=TOROIDAL_SURFACE('',#268,2.7,0.5);
#63=TOROIDAL_SURFACE('',#281,4.0515,0.710999999999996);
#64=ADVANCED_FACE('',(#86,#87),#80,.T.);
#65=ADVANCED_FACE('',(#88,#89),#61,.F.);
#66=ADVANCED_FACE('',(#90,#91),#57,.T.);
#67=ADVANCED_FACE('',(#92,#93),#58,.T.);
#68=ADVANCED_FACE('',(#94,#95),#81,.T.);
#69=ADVANCED_FACE('',(#96,#97),#62,.F.);
#70=ADVANCED_FACE('',(#98,#99),#55,.T.);
#71=ADVANCED_FACE('',(#100,#101),#59,.T.);
#72=ADVANCED_FACE('',(#51),#82,.T.);
#73=ADVANCED_FACE('',(#52),#83,.T.);
#74=ADVANCED_FACE('',(#102,#103),#56,.T.);
#75=ADVANCED_FACE('',(#53),#84,.T.);
#76=ADVANCED_FACE('',(#104,#105),#36,.T.);
#77=ADVANCED_FACE('',(#106,#107),#63,.T.);
#78=ADVANCED_FACE('',(#108,#109),#60,.T.);
#79=ADVANCED_FACE('',(#54),#85,.T.);
#80=PLANE('',#258);
#81=PLANE('',#266);
#82=PLANE('',#273);
#83=PLANE('',#275);
#84=PLANE('',#278);
#85=PLANE('',#284);
#86=FACE_BOUND('',#110,.T.);
#87=FACE_BOUND('',#111,.T.);
#88=FACE_BOUND('',#112,.T.);
#89=FACE_BOUND('',#113,.T.);
#90=FACE_BOUND('',#114,.T.);
#91=FACE_BOUND('',#115,.T.);
#92=FACE_BOUND('',#116,.T.);
#93=FACE_BOUND('',#117,.T.);
#94=FACE_BOUND('',#118,.T.);
#95=FACE_BOUND('',#119,.T.);
#96=FACE_BOUND('',#120,.T.);
#97=FACE_BOUND('',#121,.T.);
#98=FACE_BOUND('',#122,.T.);
#99=FACE_BOUND('',#123,.T.);
#100=FACE_BOUND('',#124,.T.);
#101=FACE_BOUND('',#125,.T.);
#102=FACE_BOUND('',#128,.T.);
#103=FACE_BOUND('',#129,.T.);
#104=FACE_BOUND('',#131,.T.);
#105=FACE_BOUND('',#132,.T.);
#106=FACE_BOUND('',#133,.T.);
#107=FACE_BOUND('',#134,.T.);
#108=FACE_BOUND('',#135,.T.);
#109=FACE_BOUND('',#136,.T.);
#110=EDGE_LOOP('',(#138));
#111=EDGE_LOOP('',(#139));
#112=EDGE_LOOP('',(#140));
#113=EDGE_LOOP('',(#141));
#114=EDGE_LOOP('',(#142));
#115=EDGE_LOOP('',(#143));
#116=EDGE_LOOP('',(#144));
#117=EDGE_LOOP('',(#145));
#118=EDGE_LOOP('',(#146));
#119=EDGE_LOOP('',(#147));
#120=EDGE_LOOP('',(#148));
#121=EDGE_LOOP('',(#149));
#122=EDGE_LOOP('',(#150));
#123=EDGE_LOOP('',(#151));
#124=EDGE_LOOP('',(#152));
#125=EDGE_LOOP('',(#153));
#126=EDGE_LOOP('',(#154));
#127=EDGE_LOOP('',(#155));
#128=EDGE_LOOP('',(#156));
#129=EDGE_LOOP('',(#157));
#130=EDGE_LOOP('',(#158));
#131=EDGE_LOOP('',(#159));
#132=EDGE_LOOP('',(#160));
#133=EDGE_LOOP('',(#161));
#134=EDGE_LOOP('',(#162));
#135=EDGE_LOOP('',(#163));
#136=EDGE_LOOP('',(#164));
#137=EDGE_LOOP('',(#165));
#138=ORIENTED_EDGE('',*,*,#180,.T.);
#139=ORIENTED_EDGE('',*,*,#181,.F.);
#140=ORIENTED_EDGE('',*,*,#182,.T.);
#141=ORIENTED_EDGE('',*,*,#180,.F.);
#142=ORIENTED_EDGE('',*,*,#183,.T.);
#143=ORIENTED_EDGE('',*,*,#182,.F.);
#144=ORIENTED_EDGE('',*,*,#184,.T.);
#145=ORIENTED_EDGE('',*,*,#183,.F.);
#146=ORIENTED_EDGE('',*,*,#185,.T.);
#147=ORIENTED_EDGE('',*,*,#184,.F.);
#148=ORIENTED_EDGE('',*,*,#186,.T.);
#149=ORIENTED_EDGE('',*,*,#185,.F.);
#150=ORIENTED_EDGE('',*,*,#187,.T.);
#151=ORIENTED_EDGE('',*,*,#186,.F.);
#152=ORIENTED_EDGE('',*,*,#188,.T.);
#153=ORIENTED_EDGE('',*,*,#187,.F.);
#154=ORIENTED_EDGE('',*,*,#188,.F.);
#155=ORIENTED_EDGE('',*,*,#189,.T.);
#156=ORIENTED_EDGE('',*,*,#181,.T.);
#157=ORIENTED_EDGE('',*,*,#189,.F.);
#158=ORIENTED_EDGE('',*,*,#190,.T.);
#159=ORIENTED_EDGE('',*,*,#190,.F.);
#160=ORIENTED_EDGE('',*,*,#191,.T.);
#161=ORIENTED_EDGE('',*,*,#191,.F.);
#162=ORIENTED_EDGE('',*,*,#192,.T.);
#163=ORIENTED_EDGE('',*,*,#193,.T.);
#164=ORIENTED_EDGE('',*,*,#192,.F.);
#165=ORIENTED_EDGE('',*,*,#193,.F.);
#166=VERTEX_POINT('',#379);
#167=VERTEX_POINT('',#381);
#168=VERTEX_POINT('',#384);
#169=VERTEX_POINT('',#387);
#170=VERTEX_POINT('',#390);
#171=VERTEX_POINT('',#393);
#172=VERTEX_POINT('',#396);
#173=VERTEX_POINT('',#399);
#174=VERTEX_POINT('',#402);
#175=VERTEX_POINT('',#406);
#176=VERTEX_POINT('',#410);
#177=VERTEX_POINT('',#413);
#178=VERTEX_POINT('',#443);
#179=VERTEX_POINT('',#446);
#180=EDGE_CURVE('',#166,#166,#194,.T.);
#181=EDGE_CURVE('',#167,#167,#195,.T.);
#182=EDGE_CURVE('',#168,#168,#196,.T.);
#183=EDGE_CURVE('',#169,#169,#197,.T.);
#184=EDGE_CURVE('',#170,#170,#198,.T.);
#185=EDGE_CURVE('',#171,#171,#199,.T.);
#186=EDGE_CURVE('',#172,#172,#200,.T.);
#187=EDGE_CURVE('',#173,#173,#201,.T.);
#188=EDGE_CURVE('',#174,#174,#202,.T.);
#189=EDGE_CURVE('',#175,#175,#203,.T.);
#190=EDGE_CURVE('',#176,#176,#204,.T.);
#191=EDGE_CURVE('',#177,#177,#205,.T.);
#192=EDGE_CURVE('',#178,#178,#206,.T.);
#193=EDGE_CURVE('',#179,#179,#207,.T.);
#194=CIRCLE('',#256,3.91361257567267);
#195=CIRCLE('',#257,4.625);
#196=CIRCLE('',#259,3.61383370074949);
#197=CIRCLE('',#261,3.54424226251891);
#198=CIRCLE('',#263,2.95565854503112);
#199=CIRCLE('',#265,2.7);
#200=CIRCLE('',#267,2.2);
#201=CIRCLE('',#269,2.2);
#202=CIRCLE('',#271,1.7);
#203=CIRCLE('',#274,4.625);
#204=CIRCLE('',#277,2.38125);
#205=CIRCLE('',#279,4.35910845384417);
#206=CIRCLE('',#280,4.75979443034323);
#207=CIRCLE('',#282,4.23567005914076);
#208=CURVE_STYLE('',#213,POSITIVE_LENGTH_MEASURE(0.18),#212);
#209=CURVE_STYLE('',#214,POSITIVE_LENGTH_MEASURE(0.18),#248);
#210=CURVE_STYLE('',#215,POSITIVE_LENGTH_MEASURE(0.18),#248);
#211=CURVE_STYLE('',#216,POSITIVE_LENGTH_MEASURE(0.18),#248);
#212=DRAUGHTING_PRE_DEFINED_COLOUR('blue');
#213=DRAUGHTING_PRE_DEFINED_CURVE_FONT('continuous');
#214=DRAUGHTING_PRE_DEFINED_CURVE_FONT('continuous');
#215=DRAUGHTING_PRE_DEFINED_CURVE_FONT('continuous');
#216=DRAUGHTING_PRE_DEFINED_CURVE_FONT('continuous');
#217=TRIMMED_CURVE('CUTTING PART LINE',#218,(PARAMETER_VALUE(0.)),(
PARAMETER_VALUE(1.)),.T.,.PARAMETER.);
#218=(
BOUNDED_CURVE()
B_SPLINE_CURVE(3,(#356,#357,#358,#359,#360,#361,#362,#363,#364,#365,#366,
#367,#368,#369,#370,#371,#372,#373,#374),.UNSPECIFIED.,.T.,.F.)
B_SPLINE_CURVE_WITH_KNOTS((1,3,3,3,3,3,3,3,1),(-0.0799286459754609,0.,0.106440706913165,
0.42576282765266,0.615095201551188,0.883902529132034,0.920071354024539,
1.,1.10644070691317),.UNSPECIFIED.)
CURVE()
GEOMETRIC_REPRESENTATION_ITEM()
RATIONAL_B_SPLINE_CURVE((1.,1.,1.,1.,1.,1.,1.,1.,1.,1.,1.,1.,1.,0.881546393564914,
0.881546393564914,1.,0.983387315707171,0.983387315707171,1.))
REPRESENTATION_ITEM('CUTTING PART LINE')
);
#219=PRESENTATION_LAYER_ASSIGNMENT('1','Layer 1',(#352,#353,#354,#355,#217,
#253,#254,#255,#47,#48));
#220=STYLED_ITEM('',(#230),#352);
#221=STYLED_ITEM('',(#231),#353);
#222=STYLED_ITEM('',(#232),#354);
#223=STYLED_ITEM('',(#233),#355);
#224=STYLED_ITEM('',(#234),#217);
#225=STYLED_ITEM('',(#235),#253);
#226=STYLED_ITEM('',(#236),#254);
#227=STYLED_ITEM('',(#237),#255);
#228=STYLED_ITEM('',(#238),#47);
#229=STYLED_ITEM('',(#239),#48);
#230=PRESENTATION_STYLE_ASSIGNMENT((#240));
#231=PRESENTATION_STYLE_ASSIGNMENT((#241));
#232=PRESENTATION_STYLE_ASSIGNMENT((#242));
#233=PRESENTATION_STYLE_ASSIGNMENT((#243));
#234=PRESENTATION_STYLE_ASSIGNMENT((#208));
#235=PRESENTATION_STYLE_ASSIGNMENT((#209));
#236=PRESENTATION_STYLE_ASSIGNMENT((#210));
#237=PRESENTATION_STYLE_ASSIGNMENT((#211));
#238=PRESENTATION_STYLE_ASSIGNMENT((#37));
#239=PRESENTATION_STYLE_ASSIGNMENT((#38));
#240=POINT_STYLE('',#244,POSITIVE_LENGTH_MEASURE(3.),#248);
#241=POINT_STYLE('',#245,POSITIVE_LENGTH_MEASURE(3.),#248);
#242=POINT_STYLE('',#246,POSITIVE_LENGTH_MEASURE(3.),#248);
#243=POINT_STYLE('',#247,POSITIVE_LENGTH_MEASURE(3.),#249);
#244=PRE_DEFINED_POINT_MARKER_SYMBOL('plus');
#245=PRE_DEFINED_POINT_MARKER_SYMBOL('plus');
#246=PRE_DEFINED_POINT_MARKER_SYMBOL('plus');
#247=PRE_DEFINED_POINT_MARKER_SYMBOL('plus');
#248=COLOUR_RGB('Pale Maroon',0.811749446860456,0.603921568627451,0.611749446860456);
#249=COLOUR_RGB('Medium Royal',0.2,0.4,0.8);
#250=COLOUR_RGB('Medium Gray',0.490196078431373,0.490196078431373,0.490196078431373);
#251=COLOUR_RGB('Light Gray',0.8,0.8,0.8);
#252=AXIS2_PLACEMENT_3D('',#351,#285,#286);
#253=AXIS2_PLACEMENT_3D('MCS',#375,#287,#288);
#254=AXIS2_PLACEMENT_3D('PCS',#376,#289,#290);
#255=AXIS2_PLACEMENT_3D('CIP',#377,#291,#292);
#256=AXIS2_PLACEMENT_3D('',#378,#293,#294);
#257=AXIS2_PLACEMENT_3D('',#380,#295,#296);
#258=AXIS2_PLACEMENT_3D('',#382,#297,#298);
#259=AXIS2_PLACEMENT_3D('',#383,#299,#300);
#260=AXIS2_PLACEMENT_3D('',#385,#301,#302);
#261=AXIS2_PLACEMENT_3D('',#386,#303,#304);
#262=AXIS2_PLACEMENT_3D('',#388,#305,#306);
#263=AXIS2_PLACEMENT_3D('',#389,#307,#308);
#264=AXIS2_PLACEMENT_3D('',#391,#309,#310);
#265=AXIS2_PLACEMENT_3D('',#392,#311,#312);
#266=AXIS2_PLACEMENT_3D('',#394,#313,#314);
#267=AXIS2_PLACEMENT_3D('',#395,#315,#316);
#268=AXIS2_PLACEMENT_3D('',#397,#317,#318);
#269=AXIS2_PLACEMENT_3D('',#398,#319,#320);
#270=AXIS2_PLACEMENT_3D('',#400,#321,#322);
#271=AXIS2_PLACEMENT_3D('',#401,#323,#324);
#272=AXIS2_PLACEMENT_3D('',#403,#325,#326);
#273=AXIS2_PLACEMENT_3D('',#404,#327,#328);
#274=AXIS2_PLACEMENT_3D('',#405,#329,#330);
#275=AXIS2_PLACEMENT_3D('',#407,#331,#332);
#276=AXIS2_PLACEMENT_3D('',#408,#333,#334);
#277=AXIS2_PLACEMENT_3D('',#409,#335,#336);
#278=AXIS2_PLACEMENT_3D('',#411,#337,#338);
#279=AXIS2_PLACEMENT_3D('',#412,#339,#340);
#280=AXIS2_PLACEMENT_3D('',#442,#341,#342);
#281=AXIS2_PLACEMENT_3D('',#444,#343,#344);
#282=AXIS2_PLACEMENT_3D('',#445,#345,#346);
#283=AXIS2_PLACEMENT_3D('',#447,#347,#348);
#284=AXIS2_PLACEMENT_3D('',#448,#349,#350);
#285=DIRECTION('',(0.,0.,1.));
#286=DIRECTION('',(1.,0.,0.));
#287=DIRECTION('',(0.,0.,1.));
#288=DIRECTION('',(1.,0.,0.));
#289=DIRECTION('',(0.,0.,1.));
#290=DIRECTION('',(1.,0.,0.));
#291=DIRECTION('',(0.,0.,1.));
#292=DIRECTION('',(1.,0.,0.));
#293=DIRECTION('',(0.,0.,-1.));
#294=DIRECTION('',(-1.,0.,0.));
#295=DIRECTION('',(0.,0.,-1.));
#296=DIRECTION('',(-1.,0.,0.));
#297=DIRECTION('',(0.,0.,1.));
#298=DIRECTION('',(-1.,0.,0.));
#299=DIRECTION('',(0.,0.,-1.));
#300=DIRECTION('',(-1.,0.,0.));
#301=DIRECTION('',(0.,0.,-1.));
#302=DIRECTION('',(1.,0.,0.));
#303=DIRECTION('',(0.,0.,-1.));
#304=DIRECTION('',(-1.,0.,0.));
#305=DIRECTION('',(0.,0.,-1.));
#306=DIRECTION('',(1.,0.,9.90563986438684E-16));
#307=DIRECTION('',(0.,0.,-1.));
#308=DIRECTION('',(-1.,0.,0.));
#309=DIRECTION('',(0.,0.,-1.));
#310=DIRECTION('',(1.,0.,-9.57983129874945E-17));
#311=DIRECTION('',(0.,0.,-1.));
#312=DIRECTION('',(-1.,0.,0.));
#313=DIRECTION('',(0.,0.,1.));
#314=DIRECTION('',(-1.,0.,0.));
#315=DIRECTION('',(0.,0.,-1.));
#316=DIRECTION('',(-1.,0.,0.));
#317=DIRECTION('',(0.,0.,-1.));
#318=DIRECTION('',(1.,0.,0.));
#319=DIRECTION('',(0.,0.,-1.));
#320=DIRECTION('',(-1.,0.,0.));
#321=DIRECTION('',(0.,0.,-1.));
#322=DIRECTION('',(1.,0.,0.));
#323=DIRECTION('',(0.,0.,-1.));
#324=DIRECTION('',(-1.,0.,0.));
#325=DIRECTION('',(0.,0.,-1.));
#326=DIRECTION('',(1.,0.,4.32728865490123E-17));
#327=DIRECTION('',(0.,0.,1.));
#328=DIRECTION('',(-1.,0.,0.));
#329=DIRECTION('',(0.,0.,-1.));
#330=DIRECTION('',(-1.,0.,0.));
#331=DIRECTION('',(0.,0.,-1.));
#332=DIRECTION('',(1.,0.,0.));
#333=DIRECTION('',(0.,0.,-1.));
#334=DIRECTION('',(1.,0.,0.));
#335=DIRECTION('',(0.,0.,-1.));
#336=DIRECTION('',(-1.,0.,0.));
#337=DIRECTION('',(0.,0.,-1.));
#338=DIRECTION('',(1.,0.,0.));
#339=DIRECTION('',(0.,0.,-1.));
#340=DIRECTION('',(-1.,0.,0.));
#341=DIRECTION('',(0.,0.,-1.));
#342=DIRECTION('',(-1.,0.,0.));
#343=DIRECTION('',(0.,0.,-1.));
#344=DIRECTION('',(1.,0.,0.));
#345=DIRECTION('',(0.,0.,-1.));
#346=DIRECTION('',(1.,0.,0.));
#347=DIRECTION('',(0.,0.,-1.));
#348=DIRECTION('',(1.,0.,7.52196194672095E-16));
#349=DIRECTION('',(0.,0.,1.));
#350=DIRECTION('',(-1.,0.,0.));
#351=CARTESIAN_POINT('',(0.,0.,0.));
#352=CARTESIAN_POINT('',(0.,0.,0.));
#353=CARTESIAN_POINT('',(0.,0.,0.));
#354=CARTESIAN_POINT('',(0.,0.,-12.3));
#355=CARTESIAN_POINT('CRP',(-4.7625,0.,-12.3));
#356=CARTESIAN_POINT('',(-2.38125,0.,-12.3));
#357=CARTESIAN_POINT('',(-1.5875,0.,-12.3));
#358=CARTESIAN_POINT('',(-0.79375,0.,-12.3));
#359=CARTESIAN_POINT('',(0.,0.,-12.3));
#360=CARTESIAN_POINT('',(0.,0.,-9.91875));
#361=CARTESIAN_POINT('',(0.,0.,-7.5375));
#362=CARTESIAN_POINT('',(0.,0.,-5.15625));
#363=CARTESIAN_POINT('',(-1.41189001971359,0.,-5.15625));
#364=CARTESIAN_POINT('',(-2.82378003942717,0.,-5.15625));
#365=CARTESIAN_POINT('',(-4.23567005914076,0.,-5.15625));
#366=CARTESIAN_POINT('',(-4.41037818287492,0.,-7.15317299199874));
#367=CARTESIAN_POINT('',(-4.58508630660907,0.,-9.15009598399747));
#368=CARTESIAN_POINT('',(-4.75979443034323,0.,-11.1470189759962));
#369=CARTESIAN_POINT('',(-4.78646063588704,0.,-11.4518151000781));
#370=CARTESIAN_POINT('',(-4.63495188587528,0.,-11.7176286859673));
#371=CARTESIAN_POINT('',(-4.35910845384415,0.,-11.85));
#372=CARTESIAN_POINT('',(-3.73923062623035,0.,-12.1474660008278));
#373=CARTESIAN_POINT('',(-3.06880693787184,0.,-12.3));
#374=CARTESIAN_POINT('',(-2.38125,0.,-12.3));
#375=CARTESIAN_POINT('',(0.,0.,0.));
#376=CARTESIAN_POINT('',(0.,0.,0.));
#377=CARTESIAN_POINT('',(0.,0.,-12.3));
#378=CARTESIAN_POINT('',(0.,0.,0.));
#379=CARTESIAN_POINT('',(-3.91361257567267,0.,0.));
#380=CARTESIAN_POINT('',(0.,0.,0.));
#381=CARTESIAN_POINT('',(-4.625,0.,0.));
#382=CARTESIAN_POINT('',(4.625,0.,0.));
#383=CARTESIAN_POINT('',(0.,0.,0.2884836572737));
#384=CARTESIAN_POINT('',(-3.61383370074949,0.,0.2884836572737));
#385=CARTESIAN_POINT('',(0.,0.,0.300000000000002));
#386=CARTESIAN_POINT('',(0.,0.,2.1));
#387=CARTESIAN_POINT('',(-3.54424226251891,0.,2.1));
#388=CARTESIAN_POINT('',(0.,0.,0.2884836572737));
#389=CARTESIAN_POINT('',(0.,0.,7.7));
#390=CARTESIAN_POINT('',(-2.95565854503112,0.,7.7));
#391=CARTESIAN_POINT('',(0.,0.,2.1));
#392=CARTESIAN_POINT('',(0.,0.,7.7));
#393=CARTESIAN_POINT('',(-2.7,0.,7.7));
#394=CARTESIAN_POINT('',(2.95565854503112,0.,7.7));
#395=CARTESIAN_POINT('',(0.,0.,8.2));
#396=CARTESIAN_POINT('',(-2.2,0.,8.2));
#397=CARTESIAN_POINT('',(0.,0.,8.2));
#398=CARTESIAN_POINT('',(0.,0.,10.7));
#399=CARTESIAN_POINT('',(-2.2,0.,10.7));
#400=CARTESIAN_POINT('',(0.,0.,24.));
#401=CARTESIAN_POINT('',(0.,0.,11.2));
#402=CARTESIAN_POINT('',(-1.7,0.,11.2));
#403=CARTESIAN_POINT('',(0.,0.,10.7));
#404=CARTESIAN_POINT('',(1.7,0.,11.2));
#405=CARTESIAN_POINT('',(0.,0.,-5.15625));
#406=CARTESIAN_POINT('',(-4.625,0.,-5.15625));
#407=CARTESIAN_POINT('',(4.23567005914076,0.,-5.15625));
#408=CARTESIAN_POINT('',(0.,0.,24.));
#409=CARTESIAN_POINT('',(0.,0.,-12.3));
#410=CARTESIAN_POINT('',(-2.38125,0.,-12.3));
#411=CARTESIAN_POINT('',(0.,0.,-12.3));
#412=CARTESIAN_POINT('',(0.,0.,-11.85));
#413=CARTESIAN_POINT('',(-4.35910845384417,0.,-11.85));
#414=CARTESIAN_POINT('',(-2.38125,0.,-12.3));
#415=CARTESIAN_POINT('',(-2.38125,4.7625,-12.3));
#416=CARTESIAN_POINT('',(2.38125,4.7625,-12.3));
#417=CARTESIAN_POINT('',(2.38125,0.,-12.3));
#418=CARTESIAN_POINT('',(2.38125,-4.7625,-12.3));
#419=CARTESIAN_POINT('',(-2.38125,-4.7625,-12.3));
#420=CARTESIAN_POINT('',(-2.38125,0.,-12.3));
#421=CARTESIAN_POINT('',(-3.06880693787184,0.,-12.3));
#422=CARTESIAN_POINT('',(-3.06880693787184,6.13761387574368,-12.3));
#423=CARTESIAN_POINT('',(3.06880693787184,6.13761387574368,-12.3));
#424=CARTESIAN_POINT('',(3.06880693787184,0.,-12.3));
#425=CARTESIAN_POINT('',(3.06880693787184,-6.13761387574368,-12.3));
#426=CARTESIAN_POINT('',(-3.06880693787184,-6.13761387574368,-12.3));
#427=CARTESIAN_POINT('',(-3.06880693787184,0.,-12.3));
#428=CARTESIAN_POINT('',(-3.73923062623037,0.,-12.1474660008278));
#429=CARTESIAN_POINT('',(-3.73923062623037,7.47846125246074,-12.1474660008278));
#430=CARTESIAN_POINT('',(3.73923062623037,7.47846125246074,-12.1474660008278));
#431=CARTESIAN_POINT('',(3.73923062623037,0.,-12.1474660008278));
#432=CARTESIAN_POINT('',(3.73923062623037,-7.47846125246074,-12.1474660008278));
#433=CARTESIAN_POINT('',(-3.73923062623037,-7.47846125246074,-12.1474660008278));
#434=CARTESIAN_POINT('',(-3.73923062623037,0.,-12.1474660008278));
#435=CARTESIAN_POINT('',(-4.35910845384418,0.,-11.85));
#436=CARTESIAN_POINT('',(-4.35910845384418,8.71821690768837,-11.85));
#437=CARTESIAN_POINT('',(4.35910845384418,8.71821690768837,-11.85));
#438=CARTESIAN_POINT('',(4.35910845384418,0.,-11.85));
#439=CARTESIAN_POINT('',(4.35910845384418,-8.71821690768837,-11.85));
#440=CARTESIAN_POINT('',(-4.35910845384418,-8.71821690768837,-11.85));
#441=CARTESIAN_POINT('',(-4.35910845384418,0.,-11.85));
#442=CARTESIAN_POINT('',(0.,0.,-11.1470189759962));
#443=CARTESIAN_POINT('',(-4.75979443034323,0.,-11.1470189759962));
#444=CARTESIAN_POINT('',(0.,0.,-11.2089867090897));
#445=CARTESIAN_POINT('',(0.,0.,-5.15625));
#446=CARTESIAN_POINT('',(4.23567005914076,0.,-5.15625));
#447=CARTESIAN_POINT('',(0.,0.,-11.1470189759962));
#448=CARTESIAN_POINT('',(0.,0.,-5.15625));
#449=MECHANICAL_DESIGN_GEOMETRIC_PRESENTATION_REPRESENTATION('',(#220,#221,
#222,#223,#224,#225,#226,#227,#228,#229),#450);
#450=(
GEOMETRIC_REPRESENTATION_CONTEXT(3)
GLOBAL_UNCERTAINTY_ASSIGNED_CONTEXT((#451))
GLOBAL_UNIT_ASSIGNED_CONTEXT((#457,#453,#452))
REPRESENTATION_CONTEXT('XHF780E10','TOP_LEVEL_ASSEMBLY_PART')
);
#451=UNCERTAINTY_MEASURE_WITH_UNIT(LENGTH_MEASURE(0.0254),#457,
'DISTANCE_ACCURACY_VALUE','Maximum Tolerance applied to model');
#452=(
NAMED_UNIT(*)
SI_UNIT($,.STERADIAN.)
SOLID_ANGLE_UNIT()
);
#453=(
CONVERSION_BASED_UNIT('DEGREE',#455)
NAMED_UNIT(#454)
PLANE_ANGLE_UNIT()
);
#454=DIMENSIONAL_EXPONENTS(0.,0.,0.,0.,0.,0.,0.);
#455=PLANE_ANGLE_MEASURE_WITH_UNIT(PLANE_ANGLE_MEASURE(0.0174532925),#456);
#456=(
NAMED_UNIT(*)
PLANE_ANGLE_UNIT()
SI_UNIT($,.RADIAN.)
);
#457=(
LENGTH_UNIT()
NAMED_UNIT(*)
SI_UNIT(.MILLI.,.METRE.)
);
ENDSEC;
END-ISO-10303-21;
