ISO-10303-21;
HEADER;
/* Generated by software containing ST-Developer
 * from STEP Tools, Inc. (www.steptools.com) 
 */
/* OPTION: using custom schema-name function */

FILE_DESCRIPTION(
/* description */ (''),
/* implementation_level */ '2;1');

FILE_NAME(
/* name */ 'XHF780E16160D1HZ3_Basic.stp',
/* time_stamp */ '2022-08-04T09:02:06+06:00',
/* author */ (''),
/* organization */ (''),
/* preprocessor_version */ 'ST-DEVELOPER v16.7',
/* originating_system */ 'SIEMENS PLM Software NX 12.0',
/* authorisation */ '');

FILE_SCHEMA (('AUTOMOTIVE_DESIGN { 1 0 10303 214 3 1 1 1 }'));
ENDSEC;

DATA;
#10=CONSTRUCTIVE_GEOMETRY_REPRESENTATION_RELATIONSHIP(
'supplemental geometry','',#34,#11);
#11=CONSTRUCTIVE_GEOMETRY_REPRESENTATION('supplemental geometry',(#253,
#254,#255),#450);
#12=GEOMETRICALLY_BOUNDED_WIREFRAME_SHAPE_REPRESENTATION(
'inpu3ADCDC160r5q-None',(#35),#450);
#13=PROPERTY_DEFINITION_REPRESENTATION(#17,#15);
#14=PROPERTY_DEFINITION_REPRESENTATION(#18,#16);
#15=REPRESENTATION('',(#19),#450);
#16=REPRESENTATION('',(#20),#450);
#17=PROPERTY_DEFINITION('pmi validation property','',#25);
#18=PROPERTY_DEFINITION('pmi validation property','',#25);
#19=VALUE_REPRESENTATION_ITEM('number of annotations',COUNT_MEASURE(0.));
#20=VALUE_REPRESENTATION_ITEM('number of views',COUNT_MEASURE(0.));
#21=SHAPE_REPRESENTATION_RELATIONSHIP('None',
'relationship between inpu3ADCDC160r5q-None and inpu3ADCDC160r5q-None',
#34,#23);
#22=SHAPE_REPRESENTATION_RELATIONSHIP('None',
'relationship between inpu3ADCDC160r5q-None and inpu3ADCDC160r5q-None',
#34,#12);
#23=ADVANCED_BREP_SHAPE_REPRESENTATION('inpu3ADCDC160r5q-None',(#47,#48),
#450);
#24=SHAPE_DEFINITION_REPRESENTATION(#25,#34);
#25=PRODUCT_DEFINITION_SHAPE('','',#26);
#26=PRODUCT_DEFINITION(' ','',#28,#27);
#27=PRODUCT_DEFINITION_CONTEXT('part definition',#33,'design');
#28=PRODUCT_DEFINITION_FORMATION_WITH_SPECIFIED_SOURCE(' ',' ',#30,
 .NOT_KNOWN.);
#29=PRODUCT_RELATED_PRODUCT_CATEGORY('part','',(#30));
#30=PRODUCT('inpu3ADCDC160r5q','inpu3ADCDC160r5q',' ',(#31));
#31=PRODUCT_CONTEXT(' ',#33,'mechanical');
#32=APPLICATION_PROTOCOL_DEFINITION('international standard',
'automotive_design',2010,#33);
#33=APPLICATION_CONTEXT(
'core data for automotive mechanical design processes');
#34=SHAPE_REPRESENTATION('inpu3ADCDC160r5q-None',(#252),#450);
#35=GEOMETRIC_CURVE_SET('None',(#352,#353,#354,#355,#217));
#36=(
BOUNDED_SURFACE()
B_SPLINE_SURFACE(3,3,((#420,#421,#422,#423,#424,#425,#426),(#427,#428,#429,
#430,#431,#432,#433),(#434,#435,#436,#437,#438,#439,#440),(#441,#442,#443,
#444,#445,#446,#447)),.UNSPECIFIED.,.F.,.T.,.F.)
B_SPLINE_SURFACE_WITH_KNOTS((4,4),(1,3,3,3,1),(0.,1.),(-0.5,0.,0.5,1.,1.5),
 .UNSPECIFIED.)
GEOMETRIC_REPRESENTATION_ITEM()
RATIONAL_B_SPLINE_SURFACE(((1.,0.333333333333333,0.333333333333333,1.,0.333333333333333,
0.333333333333333,1.),(0.987586026507112,0.329195342169037,0.329195342169037,
0.987586026507112,0.329195342169037,0.329195342169037,0.987586026507112),
(0.987586026507112,0.329195342169037,0.329195342169037,0.987586026507112,
0.329195342169037,0.329195342169037,0.987586026507112),(1.,0.333333333333333,
0.333333333333333,1.,0.333333333333333,0.333333333333333,1.)))
REPRESENTATION_ITEM('')
SURFACE()
);
#37=SURFACE_STYLE_USAGE(.BOTH.,#39);
#38=SURFACE_STYLE_USAGE(.BOTH.,#40);
#39=SURFACE_SIDE_STYLE('',(#41));
#40=SURFACE_SIDE_STYLE('',(#42));
#41=SURFACE_STYLE_FILL_AREA(#43);
#42=SURFACE_STYLE_FILL_AREA(#44);
#43=FILL_AREA_STYLE('',(#45));
#44=FILL_AREA_STYLE('',(#46));
#45=FILL_AREA_STYLE_COLOUR('',#250);
#46=FILL_AREA_STYLE_COLOUR('',#251);
#47=MANIFOLD_SOLID_BREP('NOCUT',#49);
#48=MANIFOLD_SOLID_BREP('CUT',#50);
#49=CLOSED_SHELL('',(#67,#68,#69,#70,#71,#72,#73,#74,#75,#76,#77));
#50=CLOSED_SHELL('',(#78,#79,#80,#81,#82));
#51=FACE_OUTER_BOUND('',#124,.T.);
#52=FACE_OUTER_BOUND('',#125,.T.);
#53=FACE_OUTER_BOUND('',#130,.T.);
#54=FACE_OUTER_BOUND('',#137,.T.);
#55=CYLINDRICAL_SURFACE('',#270,7.75);
#56=CYLINDRICAL_SURFACE('',#276,3.5);
#57=CONICAL_SURFACE('',#262,4.55949583781244,6.);
#58=CONICAL_SURFACE('',#264,5.63155903752234,2.20000000000002);
#59=CONICAL_SURFACE('',#275,3.,45.);
#60=CONICAL_SURFACE('',#280,7.4098719806415,5.);
#61=PLANE('',#260);
#62=PLANE('',#268);
#63=PLANE('',#271);
#64=PLANE('',#273);
#65=PLANE('',#278);
#66=PLANE('',#284);
#67=ADVANCED_FACE('',(#86,#87),#83,.F.);
#68=ADVANCED_FACE('',(#88,#89),#61,.F.);
#69=ADVANCED_FACE('',(#90,#91),#57,.T.);
#70=ADVANCED_FACE('',(#92,#93),#58,.T.);
#71=ADVANCED_FACE('',(#94,#95),#84,.F.);
#72=ADVANCED_FACE('',(#96,#97),#62,.F.);
#73=ADVANCED_FACE('',(#98,#99),#55,.T.);
#74=ADVANCED_FACE('',(#51),#63,.F.);
#75=ADVANCED_FACE('',(#52),#64,.F.);
#76=ADVANCED_FACE('',(#100,#101),#59,.T.);
#77=ADVANCED_FACE('',(#102,#103),#56,.T.);
#78=ADVANCED_FACE('',(#53),#65,.T.);
#79=ADVANCED_FACE('',(#104,#105),#60,.T.);
#80=ADVANCED_FACE('',(#106,#107),#85,.T.);
#81=ADVANCED_FACE('',(#108,#109),#36,.T.);
#82=ADVANCED_FACE('',(#54),#66,.F.);
#83=TOROIDAL_SURFACE('',#258,4.,0.5);
#84=TOROIDAL_SURFACE('',#266,6.12405278839403,0.400000000000001);
#85=TOROIDAL_SURFACE('',#282,6.5,1.5);
#86=FACE_BOUND('',#110,.T.);
#87=FACE_BOUND('',#111,.T.);
#88=FACE_BOUND('',#112,.T.);
#89=FACE_BOUND('',#113,.T.);
#90=FACE_BOUND('',#114,.T.);
#91=FACE_BOUND('',#115,.T.);
#92=FACE_BOUND('',#116,.T.);
#93=FACE_BOUND('',#117,.T.);
#94=FACE_BOUND('',#118,.T.);
#95=FACE_BOUND('',#119,.T.);
#96=FACE_BOUND('',#120,.T.);
#97=FACE_BOUND('',#121,.T.);
#98=FACE_BOUND('',#122,.T.);
#99=FACE_BOUND('',#123,.T.);
#100=FACE_BOUND('',#126,.T.);
#101=FACE_BOUND('',#127,.T.);
#102=FACE_BOUND('',#128,.T.);
#103=FACE_BOUND('',#129,.T.);
#104=FACE_BOUND('',#131,.T.);
#105=FACE_BOUND('',#132,.T.);
#106=FACE_BOUND('',#133,.T.);
#107=FACE_BOUND('',#134,.T.);
#108=FACE_BOUND('',#135,.T.);
#109=FACE_BOUND('',#136,.T.);
#110=EDGE_LOOP('',(#138));
#111=EDGE_LOOP('',(#139));
#112=EDGE_LOOP('',(#140));
#113=EDGE_LOOP('',(#141));
#114=EDGE_LOOP('',(#142));
#115=EDGE_LOOP('',(#143));
#116=EDGE_LOOP('',(#144));
#117=EDGE_LOOP('',(#145));
#118=EDGE_LOOP('',(#146));
#119=EDGE_LOOP('',(#147));
#120=EDGE_LOOP('',(#148));
#121=EDGE_LOOP('',(#149));
#122=EDGE_LOOP('',(#150));
#123=EDGE_LOOP('',(#151));
#124=EDGE_LOOP('',(#152));
#125=EDGE_LOOP('',(#153));
#126=EDGE_LOOP('',(#154));
#127=EDGE_LOOP('',(#155));
#128=EDGE_LOOP('',(#156));
#129=EDGE_LOOP('',(#157));
#130=EDGE_LOOP('',(#158));
#131=EDGE_LOOP('',(#159));
#132=EDGE_LOOP('',(#160));
#133=EDGE_LOOP('',(#161));
#134=EDGE_LOOP('',(#162));
#135=EDGE_LOOP('',(#163));
#136=EDGE_LOOP('',(#164));
#137=EDGE_LOOP('',(#165));
#138=ORIENTED_EDGE('',*,*,#180,.F.);
#139=ORIENTED_EDGE('',*,*,#181,.T.);
#140=ORIENTED_EDGE('',*,*,#182,.F.);
#141=ORIENTED_EDGE('',*,*,#180,.T.);
#142=ORIENTED_EDGE('',*,*,#183,.F.);
#143=ORIENTED_EDGE('',*,*,#182,.T.);
#144=ORIENTED_EDGE('',*,*,#184,.F.);
#145=ORIENTED_EDGE('',*,*,#183,.T.);
#146=ORIENTED_EDGE('',*,*,#185,.F.);
#147=ORIENTED_EDGE('',*,*,#184,.T.);
#148=ORIENTED_EDGE('',*,*,#186,.F.);
#149=ORIENTED_EDGE('',*,*,#185,.T.);
#150=ORIENTED_EDGE('',*,*,#187,.F.);
#151=ORIENTED_EDGE('',*,*,#186,.T.);
#152=ORIENTED_EDGE('',*,*,#187,.T.);
#153=ORIENTED_EDGE('',*,*,#188,.F.);
#154=ORIENTED_EDGE('',*,*,#189,.F.);
#155=ORIENTED_EDGE('',*,*,#188,.T.);
#156=ORIENTED_EDGE('',*,*,#181,.F.);
#157=ORIENTED_EDGE('',*,*,#189,.T.);
#158=ORIENTED_EDGE('',*,*,#190,.T.);
#159=ORIENTED_EDGE('',*,*,#190,.F.);
#160=ORIENTED_EDGE('',*,*,#191,.F.);
#161=ORIENTED_EDGE('',*,*,#192,.F.);
#162=ORIENTED_EDGE('',*,*,#191,.T.);
#163=ORIENTED_EDGE('',*,*,#193,.F.);
#164=ORIENTED_EDGE('',*,*,#192,.T.);
#165=ORIENTED_EDGE('',*,*,#193,.T.);
#166=VERTEX_POINT('',#379);
#167=VERTEX_POINT('',#381);
#168=VERTEX_POINT('',#384);
#169=VERTEX_POINT('',#387);
#170=VERTEX_POINT('',#390);
#171=VERTEX_POINT('',#393);
#172=VERTEX_POINT('',#396);
#173=VERTEX_POINT('',#399);
#174=VERTEX_POINT('',#403);
#175=VERTEX_POINT('',#406);
#176=VERTEX_POINT('',#410);
#177=VERTEX_POINT('',#413);
#178=VERTEX_POINT('',#416);
#179=VERTEX_POINT('',#419);
#180=EDGE_CURVE('',#166,#166,#194,.T.);
#181=EDGE_CURVE('',#167,#167,#195,.T.);
#182=EDGE_CURVE('',#168,#168,#196,.T.);
#183=EDGE_CURVE('',#169,#169,#197,.T.);
#184=EDGE_CURVE('',#170,#170,#198,.T.);
#185=EDGE_CURVE('',#171,#171,#199,.T.);
#186=EDGE_CURVE('',#172,#172,#200,.T.);
#187=EDGE_CURVE('',#173,#173,#201,.T.);
#188=EDGE_CURVE('',#174,#174,#202,.T.);
#189=EDGE_CURVE('',#175,#175,#203,.T.);
#190=EDGE_CURVE('',#176,#176,#204,.T.);
#191=EDGE_CURVE('',#177,#177,#205,.T.);
#192=EDGE_CURVE('',#178,#178,#206,.T.);
#193=EDGE_CURVE('',#179,#179,#207,.T.);
#194=CIRCLE('',#256,4.);
#195=CIRCLE('',#257,3.5);
#196=CIRCLE('',#259,4.55949583781244);
#197=CIRCLE('',#261,5.63155903752234);
#198=CIRCLE('',#263,5.72434762182978);
#199=CIRCLE('',#265,6.12405278839403);
#200=CIRCLE('',#267,7.75);
#201=CIRCLE('',#269,7.75);
#202=CIRCLE('',#272,3.);
#203=CIRCLE('',#274,3.5);
#204=CIRCLE('',#277,7.4098719806415);
#205=CIRCLE('',#279,7.99429204713762);
#206=CIRCLE('',#281,7.065513336615);
#207=CIRCLE('',#283,4.);
#208=CURVE_STYLE('',#213,POSITIVE_LENGTH_MEASURE(0.18),#212);
#209=CURVE_STYLE('',#214,POSITIVE_LENGTH_MEASURE(0.18),#249);
#210=CURVE_STYLE('',#215,POSITIVE_LENGTH_MEASURE(0.18),#249);
#211=CURVE_STYLE('',#216,POSITIVE_LENGTH_MEASURE(0.18),#249);
#212=DRAUGHTING_PRE_DEFINED_COLOUR('blue');
#213=DRAUGHTING_PRE_DEFINED_CURVE_FONT('continuous');
#214=DRAUGHTING_PRE_DEFINED_CURVE_FONT('continuous');
#215=DRAUGHTING_PRE_DEFINED_CURVE_FONT('continuous');
#216=DRAUGHTING_PRE_DEFINED_CURVE_FONT('continuous');
#217=TRIMMED_CURVE('CUTTING PART LINE',#218,(PARAMETER_VALUE(0.)),(
PARAMETER_VALUE(1.)),.T.,.PARAMETER.);
#218=(
BOUNDED_CURVE()
B_SPLINE_CURVE(3,(#356,#357,#358,#359,#360,#361,#362,#363,#364,#365,#366,
#367,#368,#369,#370,#371,#372,#373,#374),.UNSPECIFIED.,.T.,.F.)
B_SPLINE_CURVE_WITH_KNOTS((4,3,3,3,3,3,4),(0.,0.275294214310741,0.400427948085222,
0.49875845701565,0.558423693103791,0.768193763063358,1.),.UNSPECIFIED.)
CURVE()
GEOMETRIC_REPRESENTATION_ITEM()
RATIONAL_B_SPLINE_CURVE((1.,1.,1.,1.,1.,1.,1.,0.987586026507112,0.987586026507112,
1.,0.8697514474871,0.8697514474871,1.,1.,1.,1.,1.,1.,1.))
REPRESENTATION_ITEM('CUTTING PART LINE')
);
#219=PRESENTATION_LAYER_ASSIGNMENT('1','Layer 1',(#352,#353,#354,#355,#217,
#253,#254,#255,#47,#48));
#220=STYLED_ITEM('',(#230),#352);
#221=STYLED_ITEM('',(#231),#353);
#222=STYLED_ITEM('',(#232),#354);
#223=STYLED_ITEM('',(#233),#355);
#224=STYLED_ITEM('',(#234),#217);
#225=STYLED_ITEM('',(#235),#253);
#226=STYLED_ITEM('',(#236),#254);
#227=STYLED_ITEM('',(#237),#255);
#228=STYLED_ITEM('',(#238),#47);
#229=STYLED_ITEM('',(#239),#48);
#230=PRESENTATION_STYLE_ASSIGNMENT((#240));
#231=PRESENTATION_STYLE_ASSIGNMENT((#241));
#232=PRESENTATION_STYLE_ASSIGNMENT((#242));
#233=PRESENTATION_STYLE_ASSIGNMENT((#243));
#234=PRESENTATION_STYLE_ASSIGNMENT((#208));
#235=PRESENTATION_STYLE_ASSIGNMENT((#209));
#236=PRESENTATION_STYLE_ASSIGNMENT((#210));
#237=PRESENTATION_STYLE_ASSIGNMENT((#211));
#238=PRESENTATION_STYLE_ASSIGNMENT((#37));
#239=PRESENTATION_STYLE_ASSIGNMENT((#38));
#240=POINT_STYLE('',#244,POSITIVE_LENGTH_MEASURE(3.),#248);
#241=POINT_STYLE('',#245,POSITIVE_LENGTH_MEASURE(3.),#249);
#242=POINT_STYLE('',#246,POSITIVE_LENGTH_MEASURE(3.),#249);
#243=POINT_STYLE('',#247,POSITIVE_LENGTH_MEASURE(3.),#249);
#244=PRE_DEFINED_POINT_MARKER_SYMBOL('plus');
#245=PRE_DEFINED_POINT_MARKER_SYMBOL('plus');
#246=PRE_DEFINED_POINT_MARKER_SYMBOL('plus');
#247=PRE_DEFINED_POINT_MARKER_SYMBOL('plus');
#248=COLOUR_RGB('Medium Royal',0.2,0.4,0.8);
#249=COLOUR_RGB('Pale Maroon',0.811749446860456,0.603921568627451,0.611749446860456);
#250=COLOUR_RGB('Medium Gray',0.490196078431373,0.490196078431373,0.490196078431373);
#251=COLOUR_RGB('Light Gray',0.8,0.8,0.8);
#252=AXIS2_PLACEMENT_3D('',#351,#285,#286);
#253=AXIS2_PLACEMENT_3D('MCS',#375,#287,#288);
#254=AXIS2_PLACEMENT_3D('PCS',#376,#289,#290);
#255=AXIS2_PLACEMENT_3D('CIP',#377,#291,#292);
#256=AXIS2_PLACEMENT_3D('',#378,#293,#294);
#257=AXIS2_PLACEMENT_3D('',#380,#295,#296);
#258=AXIS2_PLACEMENT_3D('',#382,#297,#298);
#259=AXIS2_PLACEMENT_3D('',#383,#299,#300);
#260=AXIS2_PLACEMENT_3D('',#385,#301,#302);
#261=AXIS2_PLACEMENT_3D('',#386,#303,#304);
#262=AXIS2_PLACEMENT_3D('',#388,#305,#306);
#263=AXIS2_PLACEMENT_3D('',#389,#307,#308);
#264=AXIS2_PLACEMENT_3D('',#391,#309,#310);
#265=AXIS2_PLACEMENT_3D('',#392,#311,#312);
#266=AXIS2_PLACEMENT_3D('',#394,#313,#314);
#267=AXIS2_PLACEMENT_3D('',#395,#315,#316);
#268=AXIS2_PLACEMENT_3D('',#397,#317,#318);
#269=AXIS2_PLACEMENT_3D('',#398,#319,#320);
#270=AXIS2_PLACEMENT_3D('',#400,#321,#322);
#271=AXIS2_PLACEMENT_3D('',#401,#323,#324);
#272=AXIS2_PLACEMENT_3D('',#402,#325,#326);
#273=AXIS2_PLACEMENT_3D('',#404,#327,#328);
#274=AXIS2_PLACEMENT_3D('',#405,#329,#330);
#275=AXIS2_PLACEMENT_3D('',#407,#331,#332);
#276=AXIS2_PLACEMENT_3D('',#408,#333,#334);
#277=AXIS2_PLACEMENT_3D('',#409,#335,#336);
#278=AXIS2_PLACEMENT_3D('',#411,#337,#338);
#279=AXIS2_PLACEMENT_3D('',#412,#339,#340);
#280=AXIS2_PLACEMENT_3D('',#414,#341,#342);
#281=AXIS2_PLACEMENT_3D('',#415,#343,#344);
#282=AXIS2_PLACEMENT_3D('',#417,#345,#346);
#283=AXIS2_PLACEMENT_3D('',#418,#347,#348);
#284=AXIS2_PLACEMENT_3D('',#448,#349,#350);
#285=DIRECTION('',(0.,0.,1.));
#286=DIRECTION('',(1.,0.,0.));
#287=DIRECTION('',(0.,0.,1.));
#288=DIRECTION('',(1.,0.,0.));
#289=DIRECTION('',(0.,0.,1.));
#290=DIRECTION('',(1.,0.,0.));
#291=DIRECTION('',(0.,0.,1.));
#292=DIRECTION('',(1.,0.,0.));
#293=DIRECTION('',(0.,0.,-1.));
#294=DIRECTION('',(-1.,0.,0.));
#295=DIRECTION('',(0.,0.,-1.));
#296=DIRECTION('',(-1.,0.,0.));
#297=DIRECTION('',(0.,0.,-1.));
#298=DIRECTION('',(1.,0.,0.));
#299=DIRECTION('',(0.,0.,-1.));
#300=DIRECTION('',(-1.,0.,0.));
#301=DIRECTION('',(0.,0.,-1.));
#302=DIRECTION('',(1.,0.,0.));
#303=DIRECTION('',(0.,0.,-1.));
#304=DIRECTION('',(-1.,0.,0.));
#305=DIRECTION('',(0.,0.,-1.));
#306=DIRECTION('',(1.,0.,9.49114237781912E-17));
#307=DIRECTION('',(0.,0.,-1.));
#308=DIRECTION('',(-1.,0.,0.));
#309=DIRECTION('',(0.,0.,-1.));
#310=DIRECTION('',(1.,0.,5.51359945564071E-16));
#311=DIRECTION('',(0.,0.,-1.));
#312=DIRECTION('',(-1.,0.,0.));
#313=DIRECTION('',(0.,0.,-1.));
#314=DIRECTION('',(1.,0.,0.));
#315=DIRECTION('',(0.,0.,-1.));
#316=DIRECTION('',(-1.,0.,0.));
#317=DIRECTION('',(0.,0.,-1.));
#318=DIRECTION('',(1.,0.,0.));
#319=DIRECTION('',(0.,0.,-1.));
#320=DIRECTION('',(-1.,0.,0.));
#321=DIRECTION('',(0.,0.,-1.));
#322=DIRECTION('',(1.,0.,0.));
#323=DIRECTION('',(0.,0.,1.));
#324=DIRECTION('',(-1.,0.,0.));
#325=DIRECTION('',(0.,0.,-1.));
#326=DIRECTION('',(-1.,0.,0.));
#327=DIRECTION('',(0.,0.,-1.));
#328=DIRECTION('',(1.,0.,0.));
#329=DIRECTION('',(0.,0.,-1.));
#330=DIRECTION('',(-1.,0.,0.));
#331=DIRECTION('',(0.,0.,-1.));
#332=DIRECTION('',(1.,0.,1.38362789709018E-17));
#333=DIRECTION('',(0.,0.,-1.));
#334=DIRECTION('',(1.,0.,0.));
#335=DIRECTION('',(0.,0.,1.));
#336=DIRECTION('',(1.,0.,0.));
#337=DIRECTION('',(0.,0.,1.));
#338=DIRECTION('',(-1.,0.,0.));
#339=DIRECTION('',(0.,0.,-1.));
#340=DIRECTION('',(-1.,0.,0.));
#341=DIRECTION('',(0.,0.,-1.));
#342=DIRECTION('',(1.,0.,-3.29035873956371E-16));
#343=DIRECTION('',(0.,0.,-1.));
#344=DIRECTION('',(-1.,0.,0.));
#345=DIRECTION('',(0.,0.,-1.));
#346=DIRECTION('',(1.,0.,0.));
#347=DIRECTION('',(0.,0.,-1.));
#348=DIRECTION('',(-1.,0.,0.));
#349=DIRECTION('',(0.,0.,1.));
#350=DIRECTION('',(-1.,0.,0.));
#351=CARTESIAN_POINT('',(0.,0.,0.));
#352=CARTESIAN_POINT('CRP',(-8.,0.,-18.6));
#353=CARTESIAN_POINT('',(0.,0.,0.));
#354=CARTESIAN_POINT('',(0.,0.,0.));
#355=CARTESIAN_POINT('',(0.,0.,-18.6));
#356=CARTESIAN_POINT('',(0.,0.,-9.8));
#357=CARTESIAN_POINT('',(0.,0.,-12.7333333333333));
#358=CARTESIAN_POINT('',(0.,0.,-15.6666666666667));
#359=CARTESIAN_POINT('',(0.,0.,-18.6));
#360=CARTESIAN_POINT('',(-1.33333333333333,0.,-18.6));
#361=CARTESIAN_POINT('',(-2.66666666666667,0.,-18.6));
#362=CARTESIAN_POINT('',(-4.,0.,-18.6));
#363=CARTESIAN_POINT('',(-5.05431464863827,0.,-18.6));
#364=CARTESIAN_POINT('',(-6.08899694612449,0.,-18.397485996529));
#365=CARTESIAN_POINT('',(-7.065513336615,0.,-18.));
#366=CARTESIAN_POINT('',(-7.69783777161781,0.,-17.7426155765287));
#367=CARTESIAN_POINT('',(-8.05379337755787,0.,-17.1600552456211));
#368=CARTESIAN_POINT('',(-7.99429204713761,0.,-16.4799519268338));
#369=CARTESIAN_POINT('',(-7.79948535830554,0.,-14.2533012845559));
#370=CARTESIAN_POINT('',(-7.60467866947354,0.,-12.0266506422779));
#371=CARTESIAN_POINT('',(-7.4098719806415,0.,-9.8));
#372=CARTESIAN_POINT('',(-4.939914653761,0.,-9.8));
#373=CARTESIAN_POINT('',(-2.4699573268805,0.,-9.8));
#374=CARTESIAN_POINT('',(0.,0.,-9.8));
#375=CARTESIAN_POINT('',(0.,0.,0.));
#376=CARTESIAN_POINT('',(0.,0.,0.));
#377=CARTESIAN_POINT('',(0.,0.,-18.6));
#378=CARTESIAN_POINT('',(0.,0.,13.));
#379=CARTESIAN_POINT('',(-4.,0.,13.));
#380=CARTESIAN_POINT('',(0.,0.,13.5));
#381=CARTESIAN_POINT('',(-3.5,0.,13.5));
#382=CARTESIAN_POINT('',(0.,0.,13.5));
#383=CARTESIAN_POINT('',(0.,0.,13.));
#384=CARTESIAN_POINT('',(-4.55949583781244,0.,13.));
#385=CARTESIAN_POINT('',(4.,0.,13.));
#386=CARTESIAN_POINT('',(0.,0.,2.8));
#387=CARTESIAN_POINT('',(-5.63155903752234,0.,2.8));
#388=CARTESIAN_POINT('',(0.,0.,13.));
#389=CARTESIAN_POINT('',(0.,0.,0.384644876365001));
#390=CARTESIAN_POINT('',(-5.72434762182978,0.,0.384644876365001));
#391=CARTESIAN_POINT('',(0.,0.,2.8));
#392=CARTESIAN_POINT('',(0.,0.,0.));
#393=CARTESIAN_POINT('',(-6.12405278839403,0.,0.));
#394=CARTESIAN_POINT('',(0.,0.,0.399999999999998));
#395=CARTESIAN_POINT('',(0.,0.,0.));
#396=CARTESIAN_POINT('',(-7.75,0.,0.));
#397=CARTESIAN_POINT('',(6.12405278839403,0.,0.));
#398=CARTESIAN_POINT('',(0.,0.,-9.8));
#399=CARTESIAN_POINT('',(-7.75,0.,-9.8));
#400=CARTESIAN_POINT('',(0.,0.,28.));
#401=CARTESIAN_POINT('',(7.75,0.,-9.8));
#402=CARTESIAN_POINT('',(0.,0.,17.));
#403=CARTESIAN_POINT('',(-3.,0.,17.));
#404=CARTESIAN_POINT('',(0.,0.,17.));
#405=CARTESIAN_POINT('',(0.,0.,16.5));
#406=CARTESIAN_POINT('',(-3.5,0.,16.5));
#407=CARTESIAN_POINT('',(0.,0.,17.));
#408=CARTESIAN_POINT('',(0.,0.,28.));
#409=CARTESIAN_POINT('',(0.,0.,-9.8));
#410=CARTESIAN_POINT('',(7.4098719806415,0.,-9.8));
#411=CARTESIAN_POINT('',(0.,0.,-9.8));
#412=CARTESIAN_POINT('',(0.,0.,-16.4799519268338));
#413=CARTESIAN_POINT('',(-7.99429204713762,0.,-16.4799519268338));
#414=CARTESIAN_POINT('',(0.,0.,-9.8));
#415=CARTESIAN_POINT('',(0.,0.,-18.));
#416=CARTESIAN_POINT('',(-7.065513336615,0.,-18.));
#417=CARTESIAN_POINT('',(0.,0.,-16.6106855409553));
#418=CARTESIAN_POINT('',(0.,0.,-18.6));
#419=CARTESIAN_POINT('',(-4.,0.,-18.6));
#420=CARTESIAN_POINT('',(-4.,0.,-18.6));
#421=CARTESIAN_POINT('',(-4.,8.,-18.6));
#422=CARTESIAN_POINT('',(4.,8.,-18.6));
#423=CARTESIAN_POINT('',(4.,0.,-18.6));
#424=CARTESIAN_POINT('',(4.,-8.,-18.6));
#425=CARTESIAN_POINT('',(-4.,-8.,-18.6));
#426=CARTESIAN_POINT('',(-4.,0.,-18.6));
#427=CARTESIAN_POINT('',(-5.05431464863827,0.,-18.6));
#428=CARTESIAN_POINT('',(-5.05431464863827,10.1086292972765,-18.6));
#429=CARTESIAN_POINT('',(5.05431464863827,10.1086292972765,-18.6));
#430=CARTESIAN_POINT('',(5.05431464863827,0.,-18.6));
#431=CARTESIAN_POINT('',(5.05431464863827,-10.1086292972765,-18.6));
#432=CARTESIAN_POINT('',(-5.05431464863827,-10.1086292972765,-18.6));
#433=CARTESIAN_POINT('',(-5.05431464863827,0.,-18.6));
#434=CARTESIAN_POINT('',(-6.08899694612449,0.,-18.3974859965289));
#435=CARTESIAN_POINT('',(-6.0889969461245,12.177993892249,-18.3974859965289));
#436=CARTESIAN_POINT('',(6.0889969461245,12.177993892249,-18.3974859965289));
#437=CARTESIAN_POINT('',(6.08899694612449,0.,-18.3974859965289));
#438=CARTESIAN_POINT('',(6.0889969461245,-12.177993892249,-18.3974859965289));
#439=CARTESIAN_POINT('',(-6.0889969461245,-12.177993892249,-18.3974859965289));
#440=CARTESIAN_POINT('',(-6.08899694612449,0.,-18.3974859965289));
#441=CARTESIAN_POINT('',(-7.06551333661502,0.,-18.));
#442=CARTESIAN_POINT('',(-7.06551333661502,14.13102667323,-18.));
#443=CARTESIAN_POINT('',(7.06551333661502,14.13102667323,-18.));
#444=CARTESIAN_POINT('',(7.06551333661502,0.,-18.));
#445=CARTESIAN_POINT('',(7.06551333661502,-14.13102667323,-18.));
#446=CARTESIAN_POINT('',(-7.06551333661502,-14.13102667323,-18.));
#447=CARTESIAN_POINT('',(-7.06551333661502,0.,-18.));
#448=CARTESIAN_POINT('',(4.,0.,-18.6));
#449=MECHANICAL_DESIGN_GEOMETRIC_PRESENTATION_REPRESENTATION('',(#220,#221,
#222,#223,#224,#225,#226,#227,#228,#229),#450);
#450=(
GEOMETRIC_REPRESENTATION_CONTEXT(3)
GLOBAL_UNCERTAINTY_ASSIGNED_CONTEXT((#451))
GLOBAL_UNIT_ASSIGNED_CONTEXT((#457,#453,#452))
REPRESENTATION_CONTEXT('XHF780E16160D1HZ3_Basic',
'TOP_LEVEL_ASSEMBLY_PART')
);
#451=UNCERTAINTY_MEASURE_WITH_UNIT(LENGTH_MEASURE(0.0254),#457,
'DISTANCE_ACCURACY_VALUE','Maximum Tolerance applied to model');
#452=(
NAMED_UNIT(*)
SI_UNIT($,.STERADIAN.)
SOLID_ANGLE_UNIT()
);
#453=(
CONVERSION_BASED_UNIT('DEGREE',#455)
NAMED_UNIT(#454)
PLANE_ANGLE_UNIT()
);
#454=DIMENSIONAL_EXPONENTS(0.,0.,0.,0.,0.,0.,0.);
#455=PLANE_ANGLE_MEASURE_WITH_UNIT(PLANE_ANGLE_MEASURE(0.0174532925),#456);
#456=(
NAMED_UNIT(*)
PLANE_ANGLE_UNIT()
SI_UNIT($,.RADIAN.)
);
#457=(
LENGTH_UNIT()
NAMED_UNIT(*)
SI_UNIT(.MILLI.,.METRE.)
);
ENDSEC;
END-ISO-10303-21;
