ISO-10303-21;
HEADER;
/* Generated by software containing ST-Developer
 * from STEP Tools, Inc. (www.steptools.com) 
 */
/* OPTION: using custom schema-name function */

FILE_DESCRIPTION(
/* description */ (''),
/* implementation_level */ '2;1');

FILE_NAME(
/* name */ 'ST32-HC20-90_Basic.stp',
/* time_stamp */ '2022-05-02T16:44:15+05:00',
/* author */ (''),
/* organization */ (''),
/* preprocessor_version */ 'ST-DEVELOPER v16.7',
/* originating_system */ 'SIEMENS PLM Software NX 12.0',
/* authorisation */ '');

FILE_SCHEMA (('AUTOMOTIVE_DESIGN { 1 0 10303 214 3 1 1 1 }'));
ENDSEC;

DATA;
#10=CONSTRUCTIVE_GEOMETRY_REPRESENTATION_RELATIONSHIP(
'supplemental geometry','',#34,#11);
#11=CONSTRUCTIVE_GEOMETRY_REPRESENTATION('supplemental geometry',(#312,
#313,#314),#528);
#12=GEOMETRICALLY_BOUNDED_WIREFRAME_SHAPE_REPRESENTATION(
'inpu1EECA5248od8-None',(#35),#528);
#13=PROPERTY_DEFINITION_REPRESENTATION(#17,#15);
#14=PROPERTY_DEFINITION_REPRESENTATION(#18,#16);
#15=REPRESENTATION('',(#19),#528);
#16=REPRESENTATION('',(#20),#528);
#17=PROPERTY_DEFINITION('pmi validation property','',#25);
#18=PROPERTY_DEFINITION('pmi validation property','',#25);
#19=VALUE_REPRESENTATION_ITEM('number of annotations',COUNT_MEASURE(0.));
#20=VALUE_REPRESENTATION_ITEM('number of views',COUNT_MEASURE(0.));
#21=SHAPE_REPRESENTATION_RELATIONSHIP('None',
'relationship between inpu1EECA5248od8-None and inpu1EECA5248od8-None',
#34,#23);
#22=SHAPE_REPRESENTATION_RELATIONSHIP('None',
'relationship between inpu1EECA5248od8-None and inpu1EECA5248od8-None',
#34,#12);
#23=ADVANCED_BREP_SHAPE_REPRESENTATION('inpu1EECA5248od8-None',(#41),#528);
#24=SHAPE_DEFINITION_REPRESENTATION(#25,#34);
#25=PRODUCT_DEFINITION_SHAPE('','',#26);
#26=PRODUCT_DEFINITION(' ','',#28,#27);
#27=PRODUCT_DEFINITION_CONTEXT('part definition',#33,'design');
#28=PRODUCT_DEFINITION_FORMATION_WITH_SPECIFIED_SOURCE(' ',' ',#30,
 .NOT_KNOWN.);
#29=PRODUCT_RELATED_PRODUCT_CATEGORY('part','',(#30));
#30=PRODUCT('inpu1EECA5248od8','inpu1EECA5248od8',' ',(#31));
#31=PRODUCT_CONTEXT(' ',#33,'mechanical');
#32=APPLICATION_PROTOCOL_DEFINITION('international standard',
'automotive_design',2010,#33);
#33=APPLICATION_CONTEXT(
'core data for automotive mechanical design processes');
#34=SHAPE_REPRESENTATION('inpu1EECA5248od8-None',(#311),#528);
#35=GEOMETRIC_CURVE_SET('None',(#455,#456,#457));
#36=SURFACE_STYLE_USAGE(.BOTH.,#37);
#37=SURFACE_SIDE_STYLE('',(#38));
#38=SURFACE_STYLE_FILL_AREA(#39);
#39=FILL_AREA_STYLE('',(#40));
#40=FILL_AREA_STYLE_COLOUR('',#310);
#41=MANIFOLD_SOLID_BREP('NOCUT',#42);
#42=CLOSED_SHELL('',(#64,#65,#66,#67,#68,#69,#70,#71,#72,#73,#74,#75,#76,
#77,#78,#79,#80,#81,#82,#83,#84,#85));
#43=LINE('',#503,#45);
#44=LINE('',#510,#46);
#45=VECTOR('',#422,1.);
#46=VECTOR('',#431,1.);
#47=PLANE('',#342);
#48=PLANE('',#346);
#49=PLANE('',#350);
#50=FACE_OUTER_BOUND('',#157,.T.);
#51=FACE_OUTER_BOUND('',#158,.T.);
#52=FACE_OUTER_BOUND('',#159,.T.);
#53=FACE_OUTER_BOUND('',#160,.T.);
#54=CYLINDRICAL_SURFACE('',#332,15.75);
#55=CYLINDRICAL_SURFACE('',#335,15.75);
#56=CYLINDRICAL_SURFACE('',#338,15.75);
#57=CYLINDRICAL_SURFACE('',#341,16.);
#58=CYLINDRICAL_SURFACE('',#345,10.);
#59=CYLINDRICAL_SURFACE('',#356,15.75);
#60=CONICAL_SURFACE('',#319,15.85814514595,15.00000000005);
#61=CONICAL_SURFACE('',#348,10.125,30.0000000001);
#62=CONICAL_SURFACE('',#352,13.9966524976,45.00000000015);
#63=CONICAL_SURFACE('',#354,15.12332624879,7.500000000024);
#64=ADVANCED_FACE('',(#95,#96),#86,.T.);
#65=ADVANCED_FACE('',(#97,#98),#60,.T.);
#66=ADVANCED_FACE('',(#99,#100),#87,.F.);
#67=ADVANCED_FACE('',(#101,#102),#88,.F.);
#68=ADVANCED_FACE('',(#103,#104),#89,.F.);
#69=ADVANCED_FACE('',(#105,#106),#90,.F.);
#70=ADVANCED_FACE('',(#107,#108),#54,.T.);
#71=ADVANCED_FACE('',(#109,#110),#91,.F.);
#72=ADVANCED_FACE('',(#111,#112),#55,.T.);
#73=ADVANCED_FACE('',(#113,#114),#92,.F.);
#74=ADVANCED_FACE('',(#115,#116),#56,.T.);
#75=ADVANCED_FACE('',(#117,#118),#93,.F.);
#76=ADVANCED_FACE('',(#119,#120),#57,.T.);
#77=ADVANCED_FACE('',(#50),#47,.F.);
#78=ADVANCED_FACE('',(#51),#58,.F.);
#79=ADVANCED_FACE('',(#52),#48,.T.);
#80=ADVANCED_FACE('',(#53),#61,.F.);
#81=ADVANCED_FACE('',(#121,#122),#49,.F.);
#82=ADVANCED_FACE('',(#123,#124),#62,.T.);
#83=ADVANCED_FACE('',(#125,#126),#63,.T.);
#84=ADVANCED_FACE('',(#127,#128),#59,.T.);
#85=ADVANCED_FACE('',(#129,#130),#94,.F.);
#86=TOROIDAL_SURFACE('',#317,14.7503644656,1.);
#87=TOROIDAL_SURFACE('',#322,16.3,0.8);
#88=TOROIDAL_SURFACE('',#325,16.05,0.8);
#89=TOROIDAL_SURFACE('',#328,16.05,0.8);
#90=TOROIDAL_SURFACE('',#331,16.05,0.8);
#91=TOROIDAL_SURFACE('',#334,16.05,0.8);
#92=TOROIDAL_SURFACE('',#337,16.05,0.8);
#93=TOROIDAL_SURFACE('',#340,16.3,0.8);
#94=TOROIDAL_SURFACE('',#357,16.05,0.8);
#95=FACE_BOUND('',#131,.T.);
#96=FACE_BOUND('',#132,.T.);
#97=FACE_BOUND('',#133,.T.);
#98=FACE_BOUND('',#134,.T.);
#99=FACE_BOUND('',#135,.T.);
#100=FACE_BOUND('',#136,.T.);
#101=FACE_BOUND('',#137,.T.);
#102=FACE_BOUND('',#138,.T.);
#103=FACE_BOUND('',#139,.T.);
#104=FACE_BOUND('',#140,.T.);
#105=FACE_BOUND('',#141,.T.);
#106=FACE_BOUND('',#142,.T.);
#107=FACE_BOUND('',#143,.T.);
#108=FACE_BOUND('',#144,.T.);
#109=FACE_BOUND('',#145,.T.);
#110=FACE_BOUND('',#146,.T.);
#111=FACE_BOUND('',#147,.T.);
#112=FACE_BOUND('',#148,.T.);
#113=FACE_BOUND('',#149,.T.);
#114=FACE_BOUND('',#150,.T.);
#115=FACE_BOUND('',#151,.T.);
#116=FACE_BOUND('',#152,.T.);
#117=FACE_BOUND('',#153,.T.);
#118=FACE_BOUND('',#154,.T.);
#119=FACE_BOUND('',#155,.T.);
#120=FACE_BOUND('',#156,.T.);
#121=FACE_BOUND('',#161,.T.);
#122=FACE_BOUND('',#162,.T.);
#123=FACE_BOUND('',#163,.T.);
#124=FACE_BOUND('',#164,.T.);
#125=FACE_BOUND('',#165,.T.);
#126=FACE_BOUND('',#166,.T.);
#127=FACE_BOUND('',#167,.T.);
#128=FACE_BOUND('',#168,.T.);
#129=FACE_BOUND('',#169,.T.);
#130=FACE_BOUND('',#170,.T.);
#131=EDGE_LOOP('',(#171));
#132=EDGE_LOOP('',(#172));
#133=EDGE_LOOP('',(#173));
#134=EDGE_LOOP('',(#174));
#135=EDGE_LOOP('',(#175));
#136=EDGE_LOOP('',(#176));
#137=EDGE_LOOP('',(#177));
#138=EDGE_LOOP('',(#178));
#139=EDGE_LOOP('',(#179));
#140=EDGE_LOOP('',(#180));
#141=EDGE_LOOP('',(#181));
#142=EDGE_LOOP('',(#182));
#143=EDGE_LOOP('',(#183));
#144=EDGE_LOOP('',(#184));
#145=EDGE_LOOP('',(#185));
#146=EDGE_LOOP('',(#186));
#147=EDGE_LOOP('',(#187));
#148=EDGE_LOOP('',(#188));
#149=EDGE_LOOP('',(#189));
#150=EDGE_LOOP('',(#190));
#151=EDGE_LOOP('',(#191));
#152=EDGE_LOOP('',(#192));
#153=EDGE_LOOP('',(#193));
#154=EDGE_LOOP('',(#194));
#155=EDGE_LOOP('',(#195));
#156=EDGE_LOOP('',(#196));
#157=EDGE_LOOP('',(#197));
#158=EDGE_LOOP('',(#198,#199,#200,#201));
#159=EDGE_LOOP('',(#202));
#160=EDGE_LOOP('',(#203,#204,#205,#206));
#161=EDGE_LOOP('',(#207));
#162=EDGE_LOOP('',(#208));
#163=EDGE_LOOP('',(#209));
#164=EDGE_LOOP('',(#210));
#165=EDGE_LOOP('',(#211));
#166=EDGE_LOOP('',(#212));
#167=EDGE_LOOP('',(#213));
#168=EDGE_LOOP('',(#214));
#169=EDGE_LOOP('',(#215));
#170=EDGE_LOOP('',(#216));
#171=ORIENTED_EDGE('',*,*,#238,.F.);
#172=ORIENTED_EDGE('',*,*,#239,.T.);
#173=ORIENTED_EDGE('',*,*,#239,.F.);
#174=ORIENTED_EDGE('',*,*,#240,.T.);
#175=ORIENTED_EDGE('',*,*,#241,.T.);
#176=ORIENTED_EDGE('',*,*,#242,.T.);
#177=ORIENTED_EDGE('',*,*,#243,.T.);
#178=ORIENTED_EDGE('',*,*,#244,.T.);
#179=ORIENTED_EDGE('',*,*,#245,.T.);
#180=ORIENTED_EDGE('',*,*,#246,.T.);
#181=ORIENTED_EDGE('',*,*,#247,.F.);
#182=ORIENTED_EDGE('',*,*,#248,.T.);
#183=ORIENTED_EDGE('',*,*,#246,.F.);
#184=ORIENTED_EDGE('',*,*,#248,.F.);
#185=ORIENTED_EDGE('',*,*,#245,.F.);
#186=ORIENTED_EDGE('',*,*,#249,.T.);
#187=ORIENTED_EDGE('',*,*,#244,.F.);
#188=ORIENTED_EDGE('',*,*,#249,.F.);
#189=ORIENTED_EDGE('',*,*,#243,.F.);
#190=ORIENTED_EDGE('',*,*,#250,.T.);
#191=ORIENTED_EDGE('',*,*,#242,.F.);
#192=ORIENTED_EDGE('',*,*,#250,.F.);
#193=ORIENTED_EDGE('',*,*,#241,.F.);
#194=ORIENTED_EDGE('',*,*,#251,.T.);
#195=ORIENTED_EDGE('',*,*,#240,.F.);
#196=ORIENTED_EDGE('',*,*,#251,.F.);
#197=ORIENTED_EDGE('',*,*,#238,.T.);
#198=ORIENTED_EDGE('',*,*,#252,.F.);
#199=ORIENTED_EDGE('',*,*,#253,.F.);
#200=ORIENTED_EDGE('',*,*,#252,.T.);
#201=ORIENTED_EDGE('',*,*,#254,.F.);
#202=ORIENTED_EDGE('',*,*,#254,.T.);
#203=ORIENTED_EDGE('',*,*,#253,.T.);
#204=ORIENTED_EDGE('',*,*,#255,.T.);
#205=ORIENTED_EDGE('',*,*,#256,.F.);
#206=ORIENTED_EDGE('',*,*,#255,.F.);
#207=ORIENTED_EDGE('',*,*,#257,.T.);
#208=ORIENTED_EDGE('',*,*,#256,.T.);
#209=ORIENTED_EDGE('',*,*,#257,.F.);
#210=ORIENTED_EDGE('',*,*,#258,.F.);
#211=ORIENTED_EDGE('',*,*,#259,.T.);
#212=ORIENTED_EDGE('',*,*,#258,.T.);
#213=ORIENTED_EDGE('',*,*,#259,.F.);
#214=ORIENTED_EDGE('',*,*,#260,.F.);
#215=ORIENTED_EDGE('',*,*,#260,.T.);
#216=ORIENTED_EDGE('',*,*,#247,.T.);
#217=VERTEX_POINT('',#462);
#218=VERTEX_POINT('',#464);
#219=VERTEX_POINT('',#467);
#220=VERTEX_POINT('',#470);
#221=VERTEX_POINT('',#472);
#222=VERTEX_POINT('',#475);
#223=VERTEX_POINT('',#477);
#224=VERTEX_POINT('',#480);
#225=VERTEX_POINT('',#482);
#226=VERTEX_POINT('',#485);
#227=VERTEX_POINT('',#487);
#228=VERTEX_POINT('',#491);
#229=VERTEX_POINT('',#495);
#230=VERTEX_POINT('',#499);
#231=VERTEX_POINT('',#504);
#232=VERTEX_POINT('',#505);
#233=VERTEX_POINT('',#511);
#234=VERTEX_POINT('',#515);
#235=VERTEX_POINT('',#518);
#236=VERTEX_POINT('',#521);
#237=VERTEX_POINT('',#524);
#238=EDGE_CURVE('',#217,#217,#261,.T.);
#239=EDGE_CURVE('',#218,#218,#262,.T.);
#240=EDGE_CURVE('',#219,#219,#263,.T.);
#241=EDGE_CURVE('',#220,#220,#264,.T.);
#242=EDGE_CURVE('',#221,#221,#265,.T.);
#243=EDGE_CURVE('',#222,#222,#266,.T.);
#244=EDGE_CURVE('',#223,#223,#267,.T.);
#245=EDGE_CURVE('',#224,#224,#268,.T.);
#246=EDGE_CURVE('',#225,#225,#269,.T.);
#247=EDGE_CURVE('',#226,#226,#270,.T.);
#248=EDGE_CURVE('',#227,#227,#271,.T.);
#249=EDGE_CURVE('',#228,#228,#272,.T.);
#250=EDGE_CURVE('',#229,#229,#273,.T.);
#251=EDGE_CURVE('',#230,#230,#274,.T.);
#252=EDGE_CURVE('',#231,#232,#43,.T.);
#253=EDGE_CURVE('',#231,#231,#275,.T.);
#254=EDGE_CURVE('',#232,#232,#276,.T.);
#255=EDGE_CURVE('',#231,#233,#44,.T.);
#256=EDGE_CURVE('',#233,#233,#277,.T.);
#257=EDGE_CURVE('',#234,#234,#278,.T.);
#258=EDGE_CURVE('',#235,#235,#279,.T.);
#259=EDGE_CURVE('',#236,#236,#280,.T.);
#260=EDGE_CURVE('',#237,#237,#281,.T.);
#261=CIRCLE('',#315,14.7503644656);
#262=CIRCLE('',#316,15.71629029189);
#263=CIRCLE('',#318,16.);
#264=CIRCLE('',#320,15.5);
#265=CIRCLE('',#321,15.75);
#266=CIRCLE('',#323,15.25);
#267=CIRCLE('',#324,15.75);
#268=CIRCLE('',#326,15.25);
#269=CIRCLE('',#327,15.75);
#270=CIRCLE('',#329,15.25);
#271=CIRCLE('',#330,15.75);
#272=CIRCLE('',#333,15.75);
#273=CIRCLE('',#336,15.75);
#274=CIRCLE('',#339,16.);
#275=CIRCLE('',#343,10.);
#276=CIRCLE('',#344,10.);
#277=CIRCLE('',#347,10.25);
#278=CIRCLE('',#349,13.49665249759);
#279=CIRCLE('',#351,14.49665249758);
#280=CIRCLE('',#353,15.75);
#281=CIRCLE('',#355,15.75);
#282=CURVE_STYLE('',#285,POSITIVE_LENGTH_MEASURE(0.18),#309);
#283=CURVE_STYLE('',#286,POSITIVE_LENGTH_MEASURE(0.18),#309);
#284=CURVE_STYLE('',#287,POSITIVE_LENGTH_MEASURE(0.18),#309);
#285=DRAUGHTING_PRE_DEFINED_CURVE_FONT('continuous');
#286=DRAUGHTING_PRE_DEFINED_CURVE_FONT('continuous');
#287=DRAUGHTING_PRE_DEFINED_CURVE_FONT('continuous');
#288=PRESENTATION_LAYER_ASSIGNMENT('1','Layer 1',(#455,#456,#457,#312,#313,
#314,#41));
#289=STYLED_ITEM('',(#296),#455);
#290=STYLED_ITEM('',(#297),#456);
#291=STYLED_ITEM('',(#298),#457);
#292=STYLED_ITEM('',(#299),#312);
#293=STYLED_ITEM('',(#300),#313);
#294=STYLED_ITEM('',(#301),#314);
#295=STYLED_ITEM('',(#302),#41);
#296=PRESENTATION_STYLE_ASSIGNMENT((#303));
#297=PRESENTATION_STYLE_ASSIGNMENT((#304));
#298=PRESENTATION_STYLE_ASSIGNMENT((#305));
#299=PRESENTATION_STYLE_ASSIGNMENT((#282));
#300=PRESENTATION_STYLE_ASSIGNMENT((#283));
#301=PRESENTATION_STYLE_ASSIGNMENT((#284));
#302=PRESENTATION_STYLE_ASSIGNMENT((#36));
#303=POINT_STYLE('',#306,POSITIVE_LENGTH_MEASURE(3.),#309);
#304=POINT_STYLE('',#307,POSITIVE_LENGTH_MEASURE(3.),#309);
#305=POINT_STYLE('',#308,POSITIVE_LENGTH_MEASURE(3.),#309);
#306=PRE_DEFINED_POINT_MARKER_SYMBOL('plus');
#307=PRE_DEFINED_POINT_MARKER_SYMBOL('plus');
#308=PRE_DEFINED_POINT_MARKER_SYMBOL('plus');
#309=COLOUR_RGB('Strong Stone',0.576470588235294,0.54508278019379,0.392156862745098);
#310=COLOUR_RGB('Medium Gray',0.490196078431373,0.490196078431373,0.490196078431373);
#311=AXIS2_PLACEMENT_3D('',#454,#358,#359);
#312=AXIS2_PLACEMENT_3D('PCS',#458,#360,#361);
#313=AXIS2_PLACEMENT_3D('MCS',#459,#362,#363);
#314=AXIS2_PLACEMENT_3D('CSW',#460,#364,#365);
#315=AXIS2_PLACEMENT_3D('',#461,#366,#367);
#316=AXIS2_PLACEMENT_3D('',#463,#368,#369);
#317=AXIS2_PLACEMENT_3D('',#465,#370,#371);
#318=AXIS2_PLACEMENT_3D('',#466,#372,#373);
#319=AXIS2_PLACEMENT_3D('',#468,#374,#375);
#320=AXIS2_PLACEMENT_3D('',#469,#376,#377);
#321=AXIS2_PLACEMENT_3D('',#471,#378,#379);
#322=AXIS2_PLACEMENT_3D('',#473,#380,#381);
#323=AXIS2_PLACEMENT_3D('',#474,#382,#383);
#324=AXIS2_PLACEMENT_3D('',#476,#384,#385);
#325=AXIS2_PLACEMENT_3D('',#478,#386,#387);
#326=AXIS2_PLACEMENT_3D('',#479,#388,#389);
#327=AXIS2_PLACEMENT_3D('',#481,#390,#391);
#328=AXIS2_PLACEMENT_3D('',#483,#392,#393);
#329=AXIS2_PLACEMENT_3D('',#484,#394,#395);
#330=AXIS2_PLACEMENT_3D('',#486,#396,#397);
#331=AXIS2_PLACEMENT_3D('',#488,#398,#399);
#332=AXIS2_PLACEMENT_3D('',#489,#400,#401);
#333=AXIS2_PLACEMENT_3D('',#490,#402,#403);
#334=AXIS2_PLACEMENT_3D('',#492,#404,#405);
#335=AXIS2_PLACEMENT_3D('',#493,#406,#407);
#336=AXIS2_PLACEMENT_3D('',#494,#408,#409);
#337=AXIS2_PLACEMENT_3D('',#496,#410,#411);
#338=AXIS2_PLACEMENT_3D('',#497,#412,#413);
#339=AXIS2_PLACEMENT_3D('',#498,#414,#415);
#340=AXIS2_PLACEMENT_3D('',#500,#416,#417);
#341=AXIS2_PLACEMENT_3D('',#501,#418,#419);
#342=AXIS2_PLACEMENT_3D('',#502,#420,#421);
#343=AXIS2_PLACEMENT_3D('',#506,#423,#424);
#344=AXIS2_PLACEMENT_3D('',#507,#425,#426);
#345=AXIS2_PLACEMENT_3D('',#508,#427,#428);
#346=AXIS2_PLACEMENT_3D('',#509,#429,#430);
#347=AXIS2_PLACEMENT_3D('',#512,#432,#433);
#348=AXIS2_PLACEMENT_3D('',#513,#434,#435);
#349=AXIS2_PLACEMENT_3D('',#514,#436,#437);
#350=AXIS2_PLACEMENT_3D('',#516,#438,#439);
#351=AXIS2_PLACEMENT_3D('',#517,#440,#441);
#352=AXIS2_PLACEMENT_3D('',#519,#442,#443);
#353=AXIS2_PLACEMENT_3D('',#520,#444,#445);
#354=AXIS2_PLACEMENT_3D('',#522,#446,#447);
#355=AXIS2_PLACEMENT_3D('',#523,#448,#449);
#356=AXIS2_PLACEMENT_3D('',#525,#450,#451);
#357=AXIS2_PLACEMENT_3D('',#526,#452,#453);
#358=DIRECTION('',(0.,0.,1.));
#359=DIRECTION('',(1.,0.,0.));
#360=DIRECTION('',(0.,0.,1.));
#361=DIRECTION('',(1.,0.,0.));
#362=DIRECTION('',(0.,0.,1.));
#363=DIRECTION('',(1.,0.,0.));
#364=DIRECTION('',(0.,0.,1.));
#365=DIRECTION('',(1.,0.,0.));
#366=DIRECTION('',(0.,0.,1.));
#367=DIRECTION('',(-1.,0.,0.));
#368=DIRECTION('',(0.,0.,1.));
#369=DIRECTION('',(-1.,0.,0.));
#370=DIRECTION('',(0.,0.,-1.));
#371=DIRECTION('',(1.,0.,0.));
#372=DIRECTION('',(0.,0.,1.));
#373=DIRECTION('',(-1.,0.,0.));
#374=DIRECTION('',(0.,0.,-1.));
#375=DIRECTION('',(1.,0.,-1.95594489222816E-16));
#376=DIRECTION('',(0.,0.,-1.));
#377=DIRECTION('',(1.,0.,0.));
#378=DIRECTION('',(0.,0.,1.));
#379=DIRECTION('',(-1.,0.,0.));
#380=DIRECTION('',(0.,0.,-1.));
#381=DIRECTION('',(1.,0.,0.));
#382=DIRECTION('',(0.,0.,-1.));
#383=DIRECTION('',(1.,0.,0.));
#384=DIRECTION('',(0.,0.,1.));
#385=DIRECTION('',(-1.,0.,0.));
#386=DIRECTION('',(0.,0.,-1.));
#387=DIRECTION('',(1.,0.,0.));
#388=DIRECTION('',(0.,0.,-1.));
#389=DIRECTION('',(1.,0.,0.));
#390=DIRECTION('',(0.,0.,1.));
#391=DIRECTION('',(-1.,0.,0.));
#392=DIRECTION('',(0.,0.,-1.));
#393=DIRECTION('',(1.,0.,0.));
#394=DIRECTION('',(0.,0.,-1.));
#395=DIRECTION('',(1.,0.,0.));
#396=DIRECTION('',(0.,0.,-1.));
#397=DIRECTION('',(1.,0.,0.));
#398=DIRECTION('',(0.,0.,-1.));
#399=DIRECTION('',(1.,0.,0.));
#400=DIRECTION('',(0.,0.,1.));
#401=DIRECTION('',(1.,0.,0.));
#402=DIRECTION('',(0.,0.,-1.));
#403=DIRECTION('',(1.,0.,0.));
#404=DIRECTION('',(0.,0.,-1.));
#405=DIRECTION('',(1.,0.,0.));
#406=DIRECTION('',(0.,0.,1.));
#407=DIRECTION('',(1.,0.,0.));
#408=DIRECTION('',(0.,0.,-1.));
#409=DIRECTION('',(1.,0.,0.));
#410=DIRECTION('',(0.,0.,-1.));
#411=DIRECTION('',(1.,0.,0.));
#412=DIRECTION('',(0.,0.,1.));
#413=DIRECTION('',(1.,0.,0.));
#414=DIRECTION('',(0.,0.,-1.));
#415=DIRECTION('',(1.,0.,0.));
#416=DIRECTION('',(0.,0.,-1.));
#417=DIRECTION('',(1.,0.,0.));
#418=DIRECTION('',(0.,0.,1.));
#419=DIRECTION('',(1.,0.,0.));
#420=DIRECTION('',(0.,0.,-1.));
#421=DIRECTION('',(1.,0.,0.));
#422=DIRECTION('',(0.,0.,1.));
#423=DIRECTION('',(0.,0.,1.));
#424=DIRECTION('',(0.,-1.,0.));
#425=DIRECTION('',(0.,0.,-1.));
#426=DIRECTION('',(0.,-1.,0.));
#427=DIRECTION('',(0.,0.,1.));
#428=DIRECTION('',(0.,-1.,0.));
#429=DIRECTION('',(0.,0.,-1.));
#430=DIRECTION('',(0.,-1.,0.));
#431=DIRECTION('',(-3.0870179668809E-14,-0.500000000000983,-0.866025403783871));
#432=DIRECTION('',(0.,0.,1.));
#433=DIRECTION('',(0.,1.,0.));
#434=DIRECTION('',(0.,0.,-1.));
#435=DIRECTION('',(0.,-1.,-4.72455217626531E-17));
#436=DIRECTION('',(0.,0.,-1.));
#437=DIRECTION('',(1.,0.,0.));
#438=DIRECTION('',(0.,0.,1.));
#439=DIRECTION('',(-1.,0.,0.));
#440=DIRECTION('',(0.,0.,1.));
#441=DIRECTION('',(-1.,0.,0.));
#442=DIRECTION('',(0.,0.,1.));
#443=DIRECTION('',(-1.,0.,-2.73724529041789E-17));
#444=DIRECTION('',(0.,0.,-1.));
#445=DIRECTION('',(1.,0.,0.));
#446=DIRECTION('',(0.,0.,1.));
#447=DIRECTION('',(-1.,0.,-2.83652732004344E-16));
#448=DIRECTION('',(0.,0.,1.));
#449=DIRECTION('',(-1.,0.,0.));
#450=DIRECTION('',(0.,0.,1.));
#451=DIRECTION('',(1.,0.,0.));
#452=DIRECTION('',(0.,0.,-1.));
#453=DIRECTION('',(1.,0.,0.));
#454=CARTESIAN_POINT('',(0.,0.,0.));
#455=CARTESIAN_POINT('',(0.,0.,0.));
#456=CARTESIAN_POINT('',(0.,0.,0.));
#457=CARTESIAN_POINT('',(0.,0.,-90.));
#458=CARTESIAN_POINT('',(0.,0.,0.));
#459=CARTESIAN_POINT('',(0.,0.,0.));
#460=CARTESIAN_POINT('',(0.,0.,-90.));
#461=CARTESIAN_POINT('',(0.,0.,60.));
#462=CARTESIAN_POINT('',(-14.7503644656,0.,60.));
#463=CARTESIAN_POINT('',(0.,0.,59.2588190451));
#464=CARTESIAN_POINT('',(-15.71629029189,0.,59.2588190451));
#465=CARTESIAN_POINT('',(0.,0.,59.));
#466=CARTESIAN_POINT('',(0.,0.,58.19999999988));
#467=CARTESIAN_POINT('',(-16.,0.,58.19999999988));
#468=CARTESIAN_POINT('',(0.,0.,58.72940952249));
#469=CARTESIAN_POINT('',(0.,0.,0.));
#470=CARTESIAN_POINT('',(15.5,0.,0.));
#471=CARTESIAN_POINT('',(0.,0.,-0.5809475019311));
#472=CARTESIAN_POINT('',(-15.75,0.,-0.5809475019311));
#473=CARTESIAN_POINT('',(0.,0.,0.));
#474=CARTESIAN_POINT('',(0.,0.,-39.));
#475=CARTESIAN_POINT('',(15.25,0.,-39.));
#476=CARTESIAN_POINT('',(0.,0.,-39.74161984871));
#477=CARTESIAN_POINT('',(-15.75,0.,-39.74161984871));
#478=CARTESIAN_POINT('',(0.,0.,-39.));
#479=CARTESIAN_POINT('',(0.,0.,-43.5));
#480=CARTESIAN_POINT('',(15.25,0.,-43.5));
#481=CARTESIAN_POINT('',(0.,0.,-44.24161984871));
#482=CARTESIAN_POINT('',(-15.75,0.,-44.24161984871));
#483=CARTESIAN_POINT('',(0.,0.,-43.5));
#484=CARTESIAN_POINT('',(0.,0.,-48.));
#485=CARTESIAN_POINT('',(15.25,0.,-48.));
#486=CARTESIAN_POINT('',(0.,0.,-47.25838015129));
#487=CARTESIAN_POINT('',(15.75,0.,-47.25838015129));
#488=CARTESIAN_POINT('',(0.,0.,-48.));
#489=CARTESIAN_POINT('',(0.,0.,-10.));
#490=CARTESIAN_POINT('',(0.,0.,-42.75838015129));
#491=CARTESIAN_POINT('',(15.75,0.,-42.75838015129));
#492=CARTESIAN_POINT('',(0.,0.,-43.5));
#493=CARTESIAN_POINT('',(0.,0.,-10.));
#494=CARTESIAN_POINT('',(0.,0.,-38.25838015129));
#495=CARTESIAN_POINT('',(15.75,0.,-38.25838015129));
#496=CARTESIAN_POINT('',(0.,0.,-39.));
#497=CARTESIAN_POINT('',(0.,0.,-10.));
#498=CARTESIAN_POINT('',(0.,0.,0.7416198487096));
#499=CARTESIAN_POINT('',(16.,0.,0.7416198487096));
#500=CARTESIAN_POINT('',(0.,0.,0.));
#501=CARTESIAN_POINT('',(0.,0.,-10.));
#502=CARTESIAN_POINT('',(0.,0.,60.));
#503=CARTESIAN_POINT('',(0.,-10.,-89.56698729811));
#504=CARTESIAN_POINT('',(0.,-10.,-89.56698729811));
#505=CARTESIAN_POINT('',(0.,-10.,-39.));
#506=CARTESIAN_POINT('',(0.,0.,-89.56698729811));
#507=CARTESIAN_POINT('',(0.,0.,-39.));
#508=CARTESIAN_POINT('',(0.,0.,-90.));
#509=CARTESIAN_POINT('',(0.,2.,-39.));
#510=CARTESIAN_POINT('',(0.,-10.,-89.56698729811));
#511=CARTESIAN_POINT('',(-1.543508983441E-14,-10.25,-90.));
#512=CARTESIAN_POINT('',(0.,0.,-90.));
#513=CARTESIAN_POINT('',(0.,0.,-89.78349364905));
#514=CARTESIAN_POINT('',(0.,0.,-90.));
#515=CARTESIAN_POINT('',(13.49665249759,0.,-90.));
#516=CARTESIAN_POINT('',(0.,13.49665249759,-90.));
#517=CARTESIAN_POINT('',(0.,0.,-89.00000000002));
#518=CARTESIAN_POINT('',(-14.49665249758,0.,-89.00000000002));
#519=CARTESIAN_POINT('',(0.,0.,-89.5));
#520=CARTESIAN_POINT('',(0.,0.,-79.47988055388));
#521=CARTESIAN_POINT('',(15.75,0.,-79.47988055388));
#522=CARTESIAN_POINT('',(0.,0.,-84.23994027695));
#523=CARTESIAN_POINT('',(0.,0.,-48.74161984871));
#524=CARTESIAN_POINT('',(-15.75,0.,-48.74161984871));
#525=CARTESIAN_POINT('',(0.,0.,-10.));
#526=CARTESIAN_POINT('',(0.,0.,-48.));
#527=MECHANICAL_DESIGN_GEOMETRIC_PRESENTATION_REPRESENTATION('',(#289,#290,
#291,#292,#293,#294,#295),#528);
#528=(
GEOMETRIC_REPRESENTATION_CONTEXT(3)
GLOBAL_UNCERTAINTY_ASSIGNED_CONTEXT((#529))
GLOBAL_UNIT_ASSIGNED_CONTEXT((#535,#531,#530))
REPRESENTATION_CONTEXT('ST32-HC20-90_Basic','TOP_LEVEL_ASSEMBLY_PART')
);
#529=UNCERTAINTY_MEASURE_WITH_UNIT(LENGTH_MEASURE(2.E-5),#535,
'DISTANCE_ACCURACY_VALUE','Maximum Tolerance applied to model');
#530=(
NAMED_UNIT(*)
SI_UNIT($,.STERADIAN.)
SOLID_ANGLE_UNIT()
);
#531=(
CONVERSION_BASED_UNIT('DEGREE',#533)
NAMED_UNIT(#532)
PLANE_ANGLE_UNIT()
);
#532=DIMENSIONAL_EXPONENTS(0.,0.,0.,0.,0.,0.,0.);
#533=PLANE_ANGLE_MEASURE_WITH_UNIT(PLANE_ANGLE_MEASURE(0.0174532925),#534);
#534=(
NAMED_UNIT(*)
PLANE_ANGLE_UNIT()
SI_UNIT($,.RADIAN.)
);
#535=(
LENGTH_UNIT()
NAMED_UNIT(*)
SI_UNIT(.MILLI.,.METRE.)
);
ENDSEC;
END-ISO-10303-21;
