ISO-10303-21;
HEADER;
/* Generated by software containing ST-Developer
 * from STEP Tools, Inc. (www.steptools.com) 
 */
/* OPTION: using custom schema-name function */

FILE_DESCRIPTION(
/* description */ (''),
/* implementation_level */ '2;1');

FILE_NAME(
/* name */ 'ST20-HC20-100_Basic.stp',
/* time_stamp */ '2022-05-02T16:16:53+06:00',
/* author */ (''),
/* organization */ (''),
/* preprocessor_version */ 'ST-DEVELOPER v16.7',
/* originating_system */ 'SIEMENS PLM Software NX 12.0',
/* authorisation */ '');

FILE_SCHEMA (('AUTOMOTIVE_DESIGN { 1 0 10303 214 3 1 1 1 }'));
ENDSEC;

DATA;
#10=CONSTRUCTIVE_GEOMETRY_REPRESENTATION_RELATIONSHIP(
'supplemental geometry','',#34,#11);
#11=CONSTRUCTIVE_GEOMETRY_REPRESENTATION('supplemental geometry',(#328,
#329,#330),#558);
#12=GEOMETRICALLY_BOUNDED_WIREFRAME_SHAPE_REPRESENTATION(
'inpu1EECA5248oan-None',(#35),#558);
#13=PROPERTY_DEFINITION_REPRESENTATION(#17,#15);
#14=PROPERTY_DEFINITION_REPRESENTATION(#18,#16);
#15=REPRESENTATION('',(#19),#558);
#16=REPRESENTATION('',(#20),#558);
#17=PROPERTY_DEFINITION('pmi validation property','',#25);
#18=PROPERTY_DEFINITION('pmi validation property','',#25);
#19=VALUE_REPRESENTATION_ITEM('number of annotations',COUNT_MEASURE(0.));
#20=VALUE_REPRESENTATION_ITEM('number of views',COUNT_MEASURE(0.));
#21=SHAPE_REPRESENTATION_RELATIONSHIP('None',
'relationship between inpu1EECA5248oan-None and inpu1EECA5248oan-None',
#34,#23);
#22=SHAPE_REPRESENTATION_RELATIONSHIP('None',
'relationship between inpu1EECA5248oan-None and inpu1EECA5248oan-None',
#34,#12);
#23=ADVANCED_BREP_SHAPE_REPRESENTATION('inpu1EECA5248oan-None',(#42),#558);
#24=SHAPE_DEFINITION_REPRESENTATION(#25,#34);
#25=PRODUCT_DEFINITION_SHAPE('','',#26);
#26=PRODUCT_DEFINITION(' ','',#28,#27);
#27=PRODUCT_DEFINITION_CONTEXT('part definition',#33,'design');
#28=PRODUCT_DEFINITION_FORMATION_WITH_SPECIFIED_SOURCE(' ',' ',#30,
 .NOT_KNOWN.);
#29=PRODUCT_RELATED_PRODUCT_CATEGORY('part','',(#30));
#30=PRODUCT('inpu1EECA5248oan','inpu1EECA5248oan',' ',(#31));
#31=PRODUCT_CONTEXT(' ',#33,'mechanical');
#32=APPLICATION_PROTOCOL_DEFINITION('international standard',
'automotive_design',2010,#33);
#33=APPLICATION_CONTEXT(
'core data for automotive mechanical design processes');
#34=SHAPE_REPRESENTATION('inpu1EECA5248oan-None',(#327),#558);
#35=GEOMETRIC_CURVE_SET('None',(#480,#481,#482));
#36=SURFACE_STYLE_USAGE(.BOTH.,#37);
#37=SURFACE_SIDE_STYLE('',(#38));
#38=SURFACE_STYLE_FILL_AREA(#39);
#39=FILL_AREA_STYLE('',(#40));
#40=FILL_AREA_STYLE_COLOUR('',#41);
#41=COLOUR_RGB('Medium Gray',0.490196078431373,0.490196078431373,0.490196078431373);
#42=MANIFOLD_SOLID_BREP('NOCUT',#43);
#43=CLOSED_SHELL('',(#71,#72,#73,#74,#75,#76,#77,#78,#79,#80,#81,#82,#83,
#84,#85,#86,#87,#88,#89,#90,#91,#92,#93));
#44=TOROIDAL_SURFACE('',#349,16.05,0.8);
#45=TOROIDAL_SURFACE('',#356,16.05,0.8);
#46=TOROIDAL_SURFACE('',#360,16.05,0.8);
#47=TOROIDAL_SURFACE('',#363,16.05,0.8);
#48=TOROIDAL_SURFACE('',#366,16.05,0.8);
#49=TOROIDAL_SURFACE('',#368,16.05,0.8);
#50=TOROIDAL_SURFACE('',#371,14.75,1.);
#51=TOROIDAL_SURFACE('',#376,8.7503644656,1.);
#52=CONICAL_SURFACE('',#345,10.125,30.0000000001);
#53=CONICAL_SURFACE('',#346,10.125,30.0000000001);
#54=CONICAL_SURFACE('',#353,15.12332624879,7.500000000024);
#55=CONICAL_SURFACE('',#354,13.9966524976,45.00000000015);
#56=CONICAL_SURFACE('',#375,9.85814514595,15.00000000005);
#57=LINE('',#509,#59);
#58=LINE('',#510,#60);
#59=VECTOR('',#413,1.);
#60=VECTOR('',#414,1.);
#61=CYLINDRICAL_SURFACE('',#344,10.);
#62=CYLINDRICAL_SURFACE('',#351,15.75);
#63=CYLINDRICAL_SURFACE('',#358,15.75);
#64=CYLINDRICAL_SURFACE('',#365,15.75);
#65=CYLINDRICAL_SURFACE('',#370,15.75);
#66=CYLINDRICAL_SURFACE('',#373,10.);
#67=FACE_OUTER_BOUND('',#140,.T.);
#68=FACE_OUTER_BOUND('',#141,.T.);
#69=FACE_OUTER_BOUND('',#144,.T.);
#70=FACE_OUTER_BOUND('',#145,.T.);
#71=ADVANCED_FACE('',(#98,#99),#94,.F.);
#72=ADVANCED_FACE('',(#100,#101),#95,.F.);
#73=ADVANCED_FACE('',(#67),#96,.F.);
#74=ADVANCED_FACE('',(#68),#97,.T.);
#75=ADVANCED_FACE('',(#102,#103),#61,.F.);
#76=ADVANCED_FACE('',(#69),#52,.F.);
#77=ADVANCED_FACE('',(#70),#53,.F.);
#78=ADVANCED_FACE('',(#104,#105),#44,.F.);
#79=ADVANCED_FACE('',(#106,#107),#62,.T.);
#80=ADVANCED_FACE('',(#108,#109),#54,.T.);
#81=ADVANCED_FACE('',(#110,#111),#55,.T.);
#82=ADVANCED_FACE('',(#112,#113),#45,.F.);
#83=ADVANCED_FACE('',(#114,#115),#63,.T.);
#84=ADVANCED_FACE('',(#116,#117),#46,.F.);
#85=ADVANCED_FACE('',(#118,#119),#47,.F.);
#86=ADVANCED_FACE('',(#120,#121),#64,.T.);
#87=ADVANCED_FACE('',(#122,#123),#48,.F.);
#88=ADVANCED_FACE('',(#124,#125),#49,.F.);
#89=ADVANCED_FACE('',(#126,#127),#65,.T.);
#90=ADVANCED_FACE('',(#128,#129),#50,.T.);
#91=ADVANCED_FACE('',(#130,#131),#66,.T.);
#92=ADVANCED_FACE('',(#132,#133),#56,.T.);
#93=ADVANCED_FACE('',(#134,#135),#51,.T.);
#94=PLANE('',#334);
#95=PLANE('',#337);
#96=PLANE('',#339);
#97=PLANE('',#341);
#98=FACE_BOUND('',#136,.T.);
#99=FACE_BOUND('',#137,.T.);
#100=FACE_BOUND('',#138,.T.);
#101=FACE_BOUND('',#139,.T.);
#102=FACE_BOUND('',#142,.T.);
#103=FACE_BOUND('',#143,.T.);
#104=FACE_BOUND('',#146,.T.);
#105=FACE_BOUND('',#147,.T.);
#106=FACE_BOUND('',#148,.T.);
#107=FACE_BOUND('',#149,.T.);
#108=FACE_BOUND('',#150,.T.);
#109=FACE_BOUND('',#151,.T.);
#110=FACE_BOUND('',#152,.T.);
#111=FACE_BOUND('',#153,.T.);
#112=FACE_BOUND('',#154,.T.);
#113=FACE_BOUND('',#155,.T.);
#114=FACE_BOUND('',#156,.T.);
#115=FACE_BOUND('',#157,.T.);
#116=FACE_BOUND('',#158,.T.);
#117=FACE_BOUND('',#159,.T.);
#118=FACE_BOUND('',#160,.T.);
#119=FACE_BOUND('',#161,.T.);
#120=FACE_BOUND('',#162,.T.);
#121=FACE_BOUND('',#163,.T.);
#122=FACE_BOUND('',#164,.T.);
#123=FACE_BOUND('',#165,.T.);
#124=FACE_BOUND('',#166,.T.);
#125=FACE_BOUND('',#167,.T.);
#126=FACE_BOUND('',#168,.T.);
#127=FACE_BOUND('',#169,.T.);
#128=FACE_BOUND('',#170,.T.);
#129=FACE_BOUND('',#171,.T.);
#130=FACE_BOUND('',#172,.T.);
#131=FACE_BOUND('',#173,.T.);
#132=FACE_BOUND('',#174,.T.);
#133=FACE_BOUND('',#175,.T.);
#134=FACE_BOUND('',#176,.T.);
#135=FACE_BOUND('',#177,.T.);
#136=EDGE_LOOP('',(#178));
#137=EDGE_LOOP('',(#179,#180));
#138=EDGE_LOOP('',(#181));
#139=EDGE_LOOP('',(#182));
#140=EDGE_LOOP('',(#183));
#141=EDGE_LOOP('',(#184));
#142=EDGE_LOOP('',(#185));
#143=EDGE_LOOP('',(#186,#187));
#144=EDGE_LOOP('',(#188,#189,#190,#191));
#145=EDGE_LOOP('',(#192,#193,#194,#195));
#146=EDGE_LOOP('',(#196));
#147=EDGE_LOOP('',(#197));
#148=EDGE_LOOP('',(#198));
#149=EDGE_LOOP('',(#199));
#150=EDGE_LOOP('',(#200));
#151=EDGE_LOOP('',(#201));
#152=EDGE_LOOP('',(#202));
#153=EDGE_LOOP('',(#203));
#154=EDGE_LOOP('',(#204));
#155=EDGE_LOOP('',(#205));
#156=EDGE_LOOP('',(#206));
#157=EDGE_LOOP('',(#207));
#158=EDGE_LOOP('',(#208));
#159=EDGE_LOOP('',(#209));
#160=EDGE_LOOP('',(#210));
#161=EDGE_LOOP('',(#211));
#162=EDGE_LOOP('',(#212));
#163=EDGE_LOOP('',(#213));
#164=EDGE_LOOP('',(#214));
#165=EDGE_LOOP('',(#215));
#166=EDGE_LOOP('',(#216));
#167=EDGE_LOOP('',(#217));
#168=EDGE_LOOP('',(#218));
#169=EDGE_LOOP('',(#219));
#170=EDGE_LOOP('',(#220));
#171=EDGE_LOOP('',(#221));
#172=EDGE_LOOP('',(#222));
#173=EDGE_LOOP('',(#223));
#174=EDGE_LOOP('',(#224));
#175=EDGE_LOOP('',(#225));
#176=EDGE_LOOP('',(#226));
#177=EDGE_LOOP('',(#227));
#178=ORIENTED_EDGE('',*,*,#251,.T.);
#179=ORIENTED_EDGE('',*,*,#252,.T.);
#180=ORIENTED_EDGE('',*,*,#253,.T.);
#181=ORIENTED_EDGE('',*,*,#254,.T.);
#182=ORIENTED_EDGE('',*,*,#255,.F.);
#183=ORIENTED_EDGE('',*,*,#256,.F.);
#184=ORIENTED_EDGE('',*,*,#257,.T.);
#185=ORIENTED_EDGE('',*,*,#257,.F.);
#186=ORIENTED_EDGE('',*,*,#258,.F.);
#187=ORIENTED_EDGE('',*,*,#259,.F.);
#188=ORIENTED_EDGE('',*,*,#253,.F.);
#189=ORIENTED_EDGE('',*,*,#260,.F.);
#190=ORIENTED_EDGE('',*,*,#258,.T.);
#191=ORIENTED_EDGE('',*,*,#261,.T.);
#192=ORIENTED_EDGE('',*,*,#259,.T.);
#193=ORIENTED_EDGE('',*,*,#260,.T.);
#194=ORIENTED_EDGE('',*,*,#252,.F.);
#195=ORIENTED_EDGE('',*,*,#261,.F.);
#196=ORIENTED_EDGE('',*,*,#262,.T.);
#197=ORIENTED_EDGE('',*,*,#263,.T.);
#198=ORIENTED_EDGE('',*,*,#263,.F.);
#199=ORIENTED_EDGE('',*,*,#264,.F.);
#200=ORIENTED_EDGE('',*,*,#264,.T.);
#201=ORIENTED_EDGE('',*,*,#265,.T.);
#202=ORIENTED_EDGE('',*,*,#265,.F.);
#203=ORIENTED_EDGE('',*,*,#251,.F.);
#204=ORIENTED_EDGE('',*,*,#266,.T.);
#205=ORIENTED_EDGE('',*,*,#262,.F.);
#206=ORIENTED_EDGE('',*,*,#266,.F.);
#207=ORIENTED_EDGE('',*,*,#267,.F.);
#208=ORIENTED_EDGE('',*,*,#268,.T.);
#209=ORIENTED_EDGE('',*,*,#267,.T.);
#210=ORIENTED_EDGE('',*,*,#269,.T.);
#211=ORIENTED_EDGE('',*,*,#270,.T.);
#212=ORIENTED_EDGE('',*,*,#269,.F.);
#213=ORIENTED_EDGE('',*,*,#271,.F.);
#214=ORIENTED_EDGE('',*,*,#268,.F.);
#215=ORIENTED_EDGE('',*,*,#271,.T.);
#216=ORIENTED_EDGE('',*,*,#272,.T.);
#217=ORIENTED_EDGE('',*,*,#270,.F.);
#218=ORIENTED_EDGE('',*,*,#272,.F.);
#219=ORIENTED_EDGE('',*,*,#273,.F.);
#220=ORIENTED_EDGE('',*,*,#255,.T.);
#221=ORIENTED_EDGE('',*,*,#273,.T.);
#222=ORIENTED_EDGE('',*,*,#254,.F.);
#223=ORIENTED_EDGE('',*,*,#274,.F.);
#224=ORIENTED_EDGE('',*,*,#274,.T.);
#225=ORIENTED_EDGE('',*,*,#275,.F.);
#226=ORIENTED_EDGE('',*,*,#256,.T.);
#227=ORIENTED_EDGE('',*,*,#275,.T.);
#228=VERTEX_POINT('',#487);
#229=VERTEX_POINT('',#489);
#230=VERTEX_POINT('',#490);
#231=VERTEX_POINT('',#494);
#232=VERTEX_POINT('',#496);
#233=VERTEX_POINT('',#499);
#234=VERTEX_POINT('',#502);
#235=VERTEX_POINT('',#505);
#236=VERTEX_POINT('',#506);
#237=VERTEX_POINT('',#514);
#238=VERTEX_POINT('',#516);
#239=VERTEX_POINT('',#519);
#240=VERTEX_POINT('',#522);
#241=VERTEX_POINT('',#526);
#242=VERTEX_POINT('',#529);
#243=VERTEX_POINT('',#532);
#244=VERTEX_POINT('',#535);
#245=VERTEX_POINT('',#537);
#246=VERTEX_POINT('',#540);
#247=VERTEX_POINT('',#544);
#248=VERTEX_POINT('',#547);
#249=VERTEX_POINT('',#551);
#250=VERTEX_POINT('',#554);
#251=EDGE_CURVE('',#228,#228,#276,.T.);
#252=EDGE_CURVE('',#229,#230,#277,.T.);
#253=EDGE_CURVE('',#230,#229,#278,.T.);
#254=EDGE_CURVE('',#231,#231,#279,.T.);
#255=EDGE_CURVE('',#232,#232,#280,.T.);
#256=EDGE_CURVE('',#233,#233,#281,.T.);
#257=EDGE_CURVE('',#234,#234,#282,.T.);
#258=EDGE_CURVE('',#235,#236,#283,.T.);
#259=EDGE_CURVE('',#236,#235,#284,.T.);
#260=EDGE_CURVE('',#235,#230,#57,.T.);
#261=EDGE_CURVE('',#236,#229,#58,.T.);
#262=EDGE_CURVE('',#237,#237,#285,.T.);
#263=EDGE_CURVE('',#238,#238,#286,.T.);
#264=EDGE_CURVE('',#239,#239,#287,.T.);
#265=EDGE_CURVE('',#240,#240,#288,.T.);
#266=EDGE_CURVE('',#241,#241,#289,.T.);
#267=EDGE_CURVE('',#242,#242,#290,.T.);
#268=EDGE_CURVE('',#243,#243,#291,.T.);
#269=EDGE_CURVE('',#244,#244,#292,.T.);
#270=EDGE_CURVE('',#245,#245,#293,.T.);
#271=EDGE_CURVE('',#246,#246,#294,.T.);
#272=EDGE_CURVE('',#247,#247,#295,.T.);
#273=EDGE_CURVE('',#248,#248,#296,.T.);
#274=EDGE_CURVE('',#249,#249,#297,.T.);
#275=EDGE_CURVE('',#250,#250,#298,.T.);
#276=CIRCLE('',#331,13.49665249759);
#277=CIRCLE('',#332,10.25);
#278=CIRCLE('',#333,10.25);
#279=CIRCLE('',#335,10.);
#280=CIRCLE('',#336,14.75);
#281=CIRCLE('',#338,8.7503644656);
#282=CIRCLE('',#340,10.);
#283=CIRCLE('',#342,10.);
#284=CIRCLE('',#343,10.);
#285=CIRCLE('',#347,15.25);
#286=CIRCLE('',#348,15.75);
#287=CIRCLE('',#350,15.75);
#288=CIRCLE('',#352,14.49665249758);
#289=CIRCLE('',#355,15.75);
#290=CIRCLE('',#357,15.75);
#291=CIRCLE('',#359,15.25);
#292=CIRCLE('',#361,15.75);
#293=CIRCLE('',#362,15.25);
#294=CIRCLE('',#364,15.75);
#295=CIRCLE('',#367,15.75);
#296=CIRCLE('',#369,15.75);
#297=CIRCLE('',#372,10.);
#298=CIRCLE('',#374,9.716290291889);
#299=CURVE_STYLE('',#302,POSITIVE_LENGTH_MEASURE(0.13),#326);
#300=CURVE_STYLE('',#303,POSITIVE_LENGTH_MEASURE(0.13),#326);
#301=CURVE_STYLE('',#304,POSITIVE_LENGTH_MEASURE(0.13),#326);
#302=DRAUGHTING_PRE_DEFINED_CURVE_FONT('continuous');
#303=DRAUGHTING_PRE_DEFINED_CURVE_FONT('continuous');
#304=DRAUGHTING_PRE_DEFINED_CURVE_FONT('continuous');
#305=PRESENTATION_LAYER_ASSIGNMENT('1','Layer 1',(#480,#481,#482,#328,#329,
#330,#42));
#306=STYLED_ITEM('',(#313),#480);
#307=STYLED_ITEM('',(#314),#481);
#308=STYLED_ITEM('',(#315),#482);
#309=STYLED_ITEM('',(#316),#328);
#310=STYLED_ITEM('',(#317),#329);
#311=STYLED_ITEM('',(#318),#330);
#312=STYLED_ITEM('',(#319),#42);
#313=PRESENTATION_STYLE_ASSIGNMENT((#320));
#314=PRESENTATION_STYLE_ASSIGNMENT((#321));
#315=PRESENTATION_STYLE_ASSIGNMENT((#322));
#316=PRESENTATION_STYLE_ASSIGNMENT((#299));
#317=PRESENTATION_STYLE_ASSIGNMENT((#300));
#318=PRESENTATION_STYLE_ASSIGNMENT((#301));
#319=PRESENTATION_STYLE_ASSIGNMENT((#36));
#320=POINT_STYLE('',#323,POSITIVE_LENGTH_MEASURE(3.),#326);
#321=POINT_STYLE('',#324,POSITIVE_LENGTH_MEASURE(3.),#326);
#322=POINT_STYLE('',#325,POSITIVE_LENGTH_MEASURE(3.),#326);
#323=PRE_DEFINED_POINT_MARKER_SYMBOL('plus');
#324=PRE_DEFINED_POINT_MARKER_SYMBOL('plus');
#325=PRE_DEFINED_POINT_MARKER_SYMBOL('plus');
#326=DRAUGHTING_PRE_DEFINED_COLOUR('yellow');
#327=AXIS2_PLACEMENT_3D('',#479,#377,#378);
#328=AXIS2_PLACEMENT_3D('PCS',#483,#379,#380);
#329=AXIS2_PLACEMENT_3D('MCS',#484,#381,#382);
#330=AXIS2_PLACEMENT_3D('CSW',#485,#383,#384);
#331=AXIS2_PLACEMENT_3D('',#486,#385,#386);
#332=AXIS2_PLACEMENT_3D('',#488,#387,#388);
#333=AXIS2_PLACEMENT_3D('',#491,#389,#390);
#334=AXIS2_PLACEMENT_3D('',#492,#391,#392);
#335=AXIS2_PLACEMENT_3D('',#493,#393,#394);
#336=AXIS2_PLACEMENT_3D('',#495,#395,#396);
#337=AXIS2_PLACEMENT_3D('',#497,#397,#398);
#338=AXIS2_PLACEMENT_3D('',#498,#399,#400);
#339=AXIS2_PLACEMENT_3D('',#500,#401,#402);
#340=AXIS2_PLACEMENT_3D('',#501,#403,#404);
#341=AXIS2_PLACEMENT_3D('',#503,#405,#406);
#342=AXIS2_PLACEMENT_3D('',#504,#407,#408);
#343=AXIS2_PLACEMENT_3D('',#507,#409,#410);
#344=AXIS2_PLACEMENT_3D('',#508,#411,#412);
#345=AXIS2_PLACEMENT_3D('',#511,#415,#416);
#346=AXIS2_PLACEMENT_3D('',#512,#417,#418);
#347=AXIS2_PLACEMENT_3D('',#513,#419,#420);
#348=AXIS2_PLACEMENT_3D('',#515,#421,#422);
#349=AXIS2_PLACEMENT_3D('',#517,#423,#424);
#350=AXIS2_PLACEMENT_3D('',#518,#425,#426);
#351=AXIS2_PLACEMENT_3D('',#520,#427,#428);
#352=AXIS2_PLACEMENT_3D('',#521,#429,#430);
#353=AXIS2_PLACEMENT_3D('',#523,#431,#432);
#354=AXIS2_PLACEMENT_3D('',#524,#433,#434);
#355=AXIS2_PLACEMENT_3D('',#525,#435,#436);
#356=AXIS2_PLACEMENT_3D('',#527,#437,#438);
#357=AXIS2_PLACEMENT_3D('',#528,#439,#440);
#358=AXIS2_PLACEMENT_3D('',#530,#441,#442);
#359=AXIS2_PLACEMENT_3D('',#531,#443,#444);
#360=AXIS2_PLACEMENT_3D('',#533,#445,#446);
#361=AXIS2_PLACEMENT_3D('',#534,#447,#448);
#362=AXIS2_PLACEMENT_3D('',#536,#449,#450);
#363=AXIS2_PLACEMENT_3D('',#538,#451,#452);
#364=AXIS2_PLACEMENT_3D('',#539,#453,#454);
#365=AXIS2_PLACEMENT_3D('',#541,#455,#456);
#366=AXIS2_PLACEMENT_3D('',#542,#457,#458);
#367=AXIS2_PLACEMENT_3D('',#543,#459,#460);
#368=AXIS2_PLACEMENT_3D('',#545,#461,#462);
#369=AXIS2_PLACEMENT_3D('',#546,#463,#464);
#370=AXIS2_PLACEMENT_3D('',#548,#465,#466);
#371=AXIS2_PLACEMENT_3D('',#549,#467,#468);
#372=AXIS2_PLACEMENT_3D('',#550,#469,#470);
#373=AXIS2_PLACEMENT_3D('',#552,#471,#472);
#374=AXIS2_PLACEMENT_3D('',#553,#473,#474);
#375=AXIS2_PLACEMENT_3D('',#555,#475,#476);
#376=AXIS2_PLACEMENT_3D('',#556,#477,#478);
#377=DIRECTION('',(0.,0.,1.));
#378=DIRECTION('',(1.,0.,0.));
#379=DIRECTION('',(0.,0.,1.));
#380=DIRECTION('',(1.,0.,0.));
#381=DIRECTION('',(0.,0.,1.));
#382=DIRECTION('',(1.,0.,0.));
#383=DIRECTION('',(0.,0.,1.));
#384=DIRECTION('',(1.,0.,0.));
#385=DIRECTION('',(0.,0.,-1.));
#386=DIRECTION('',(1.,0.,0.));
#387=DIRECTION('',(0.,0.,1.));
#388=DIRECTION('',(0.,-1.,0.));
#389=DIRECTION('',(0.,0.,1.));
#390=DIRECTION('',(0.,1.,0.));
#391=DIRECTION('',(0.,0.,1.));
#392=DIRECTION('',(-1.,0.,0.));
#393=DIRECTION('',(0.,0.,-1.));
#394=DIRECTION('',(1.,0.,0.));
#395=DIRECTION('',(0.,0.,-1.));
#396=DIRECTION('',(-1.,0.,0.));
#397=DIRECTION('',(0.,0.,-1.));
#398=DIRECTION('',(1.,0.,0.));
#399=DIRECTION('',(0.,0.,-1.));
#400=DIRECTION('',(-1.,0.,0.));
#401=DIRECTION('',(0.,0.,-1.));
#402=DIRECTION('',(1.,0.,0.));
#403=DIRECTION('',(0.,0.,-1.));
#404=DIRECTION('',(0.,-1.,0.));
#405=DIRECTION('',(0.,0.,-1.));
#406=DIRECTION('',(0.,-1.,0.));
#407=DIRECTION('',(0.,0.,1.));
#408=DIRECTION('',(0.,1.,0.));
#409=DIRECTION('',(0.,0.,1.));
#410=DIRECTION('',(0.,-1.,0.));
#411=DIRECTION('',(0.,0.,1.));
#412=DIRECTION('',(0.,-1.,0.));
#413=DIRECTION('',(0.,0.500000000000983,-0.866025403783871));
#414=DIRECTION('',(-3.0870179668809E-14,-0.500000000000983,-0.866025403783871));
#415=DIRECTION('',(0.,0.,-1.));
#416=DIRECTION('',(0.,-1.,-4.72455217626531E-17));
#417=DIRECTION('',(0.,0.,-1.));
#418=DIRECTION('',(0.,-1.,-4.72455217626531E-17));
#419=DIRECTION('',(0.,0.,-1.));
#420=DIRECTION('',(1.,0.,0.));
#421=DIRECTION('',(0.,0.,1.));
#422=DIRECTION('',(-1.,0.,0.));
#423=DIRECTION('',(0.,0.,-1.));
#424=DIRECTION('',(1.,0.,0.));
#425=DIRECTION('',(0.,0.,-1.));
#426=DIRECTION('',(1.,0.,0.));
#427=DIRECTION('',(0.,0.,1.));
#428=DIRECTION('',(1.,0.,0.));
#429=DIRECTION('',(0.,0.,1.));
#430=DIRECTION('',(-1.,0.,0.));
#431=DIRECTION('',(0.,0.,1.));
#432=DIRECTION('',(-1.,0.,-2.83652732004344E-16));
#433=DIRECTION('',(0.,0.,1.));
#434=DIRECTION('',(-1.,0.,-2.73724529041789E-17));
#435=DIRECTION('',(0.,0.,-1.));
#436=DIRECTION('',(1.,0.,0.));
#437=DIRECTION('',(0.,0.,-1.));
#438=DIRECTION('',(1.,0.,0.));
#439=DIRECTION('',(0.,0.,1.));
#440=DIRECTION('',(-1.,0.,0.));
#441=DIRECTION('',(0.,0.,1.));
#442=DIRECTION('',(1.,0.,0.));
#443=DIRECTION('',(0.,0.,-1.));
#444=DIRECTION('',(1.,0.,0.));
#445=DIRECTION('',(0.,0.,-1.));
#446=DIRECTION('',(1.,0.,0.));
#447=DIRECTION('',(0.,0.,1.));
#448=DIRECTION('',(-1.,0.,0.));
#449=DIRECTION('',(0.,0.,-1.));
#450=DIRECTION('',(1.,0.,0.));
#451=DIRECTION('',(0.,0.,-1.));
#452=DIRECTION('',(1.,0.,0.));
#453=DIRECTION('',(0.,0.,-1.));
#454=DIRECTION('',(1.,0.,0.));
#455=DIRECTION('',(0.,0.,1.));
#456=DIRECTION('',(1.,0.,0.));
#457=DIRECTION('',(0.,0.,-1.));
#458=DIRECTION('',(1.,0.,0.));
#459=DIRECTION('',(0.,0.,-1.));
#460=DIRECTION('',(1.,0.,0.));
#461=DIRECTION('',(0.,0.,-1.));
#462=DIRECTION('',(1.,0.,0.));
#463=DIRECTION('',(0.,0.,1.));
#464=DIRECTION('',(-1.,0.,0.));
#465=DIRECTION('',(0.,0.,1.));
#466=DIRECTION('',(1.,0.,0.));
#467=DIRECTION('',(0.,0.,-1.));
#468=DIRECTION('',(1.,0.,0.));
#469=DIRECTION('',(0.,0.,1.));
#470=DIRECTION('',(-1.,0.,0.));
#471=DIRECTION('',(0.,0.,1.));
#472=DIRECTION('',(1.,0.,0.));
#473=DIRECTION('',(0.,0.,1.));
#474=DIRECTION('',(-1.,0.,0.));
#475=DIRECTION('',(0.,0.,-1.));
#476=DIRECTION('',(1.,0.,1.7484152056895E-16));
#477=DIRECTION('',(0.,0.,-1.));
#478=DIRECTION('',(1.,0.,0.));
#479=CARTESIAN_POINT('',(0.,0.,0.));
#480=CARTESIAN_POINT('',(0.,0.,0.));
#481=CARTESIAN_POINT('',(0.,0.,0.));
#482=CARTESIAN_POINT('',(0.,0.,-100.));
#483=CARTESIAN_POINT('',(0.,0.,0.));
#484=CARTESIAN_POINT('',(0.,0.,0.));
#485=CARTESIAN_POINT('',(0.,0.,-100.));
#486=CARTESIAN_POINT('',(0.,0.,-100.));
#487=CARTESIAN_POINT('',(13.49665249759,0.,-100.));
#488=CARTESIAN_POINT('',(0.,0.,-100.));
#489=CARTESIAN_POINT('',(-1.543508983441E-14,-10.25,-100.));
#490=CARTESIAN_POINT('',(0.,10.25,-100.));
#491=CARTESIAN_POINT('',(0.,0.,-100.));
#492=CARTESIAN_POINT('',(0.,13.49665249759,-100.));
#493=CARTESIAN_POINT('',(0.,0.,0.));
#494=CARTESIAN_POINT('',(10.,0.,0.));
#495=CARTESIAN_POINT('',(0.,0.,0.));
#496=CARTESIAN_POINT('',(-14.75,0.,0.));
#497=CARTESIAN_POINT('',(0.,10.,0.));
#498=CARTESIAN_POINT('',(0.,0.,50.));
#499=CARTESIAN_POINT('',(-8.7503644656,0.,50.));
#500=CARTESIAN_POINT('',(0.,0.,50.));
#501=CARTESIAN_POINT('',(0.,0.,-49.));
#502=CARTESIAN_POINT('',(0.,-10.,-49.));
#503=CARTESIAN_POINT('',(0.,2.,-49.));
#504=CARTESIAN_POINT('',(0.,0.,-99.56698729811));
#505=CARTESIAN_POINT('',(0.,10.,-99.56698729811));
#506=CARTESIAN_POINT('',(0.,-10.,-99.56698729811));
#507=CARTESIAN_POINT('',(0.,0.,-99.56698729811));
#508=CARTESIAN_POINT('',(0.,0.,-100.));
#509=CARTESIAN_POINT('',(0.,10.,-99.56698729811));
#510=CARTESIAN_POINT('',(0.,-10.,-99.56698729811));
#511=CARTESIAN_POINT('',(0.,0.,-99.78349364905));
#512=CARTESIAN_POINT('',(0.,0.,-99.78349364905));
#513=CARTESIAN_POINT('',(0.,0.,-58.));
#514=CARTESIAN_POINT('',(15.25,0.,-58.));
#515=CARTESIAN_POINT('',(0.,0.,-58.74161984871));
#516=CARTESIAN_POINT('',(-15.75,0.,-58.74161984871));
#517=CARTESIAN_POINT('',(0.,0.,-58.));
#518=CARTESIAN_POINT('',(0.,0.,-89.47988055388));
#519=CARTESIAN_POINT('',(15.75,0.,-89.47988055388));
#520=CARTESIAN_POINT('',(0.,0.,-10.));
#521=CARTESIAN_POINT('',(0.,0.,-99.00000000002));
#522=CARTESIAN_POINT('',(-14.49665249758,0.,-99.00000000002));
#523=CARTESIAN_POINT('',(0.,0.,-94.23994027695));
#524=CARTESIAN_POINT('',(0.,0.,-99.5));
#525=CARTESIAN_POINT('',(0.,0.,-57.25838015129));
#526=CARTESIAN_POINT('',(15.75,0.,-57.25838015129));
#527=CARTESIAN_POINT('',(0.,0.,-58.));
#528=CARTESIAN_POINT('',(0.,0.,-54.24161984871));
#529=CARTESIAN_POINT('',(-15.75,0.,-54.24161984871));
#530=CARTESIAN_POINT('',(0.,0.,-10.));
#531=CARTESIAN_POINT('',(0.,0.,-53.5));
#532=CARTESIAN_POINT('',(15.25,0.,-53.5));
#533=CARTESIAN_POINT('',(0.,0.,-53.5));
#534=CARTESIAN_POINT('',(0.,0.,-49.74161984871));
#535=CARTESIAN_POINT('',(-15.75,0.,-49.74161984871));
#536=CARTESIAN_POINT('',(0.,0.,-49.));
#537=CARTESIAN_POINT('',(15.25,0.,-49.));
#538=CARTESIAN_POINT('',(0.,0.,-49.));
#539=CARTESIAN_POINT('',(0.,0.,-52.75838015129));
#540=CARTESIAN_POINT('',(15.75,0.,-52.75838015129));
#541=CARTESIAN_POINT('',(0.,0.,-10.));
#542=CARTESIAN_POINT('',(0.,0.,-53.5));
#543=CARTESIAN_POINT('',(0.,0.,-48.25838015129));
#544=CARTESIAN_POINT('',(15.75,0.,-48.25838015129));
#545=CARTESIAN_POINT('',(0.,0.,-49.));
#546=CARTESIAN_POINT('',(0.,0.,-1.));
#547=CARTESIAN_POINT('',(-15.75,0.,-1.));
#548=CARTESIAN_POINT('',(0.,0.,-10.));
#549=CARTESIAN_POINT('',(0.,0.,-1.));
#550=CARTESIAN_POINT('',(0.,0.,48.19999999988));
#551=CARTESIAN_POINT('',(-10.,0.,48.19999999988));
#552=CARTESIAN_POINT('',(0.,0.,-10.));
#553=CARTESIAN_POINT('',(0.,0.,49.2588190451));
#554=CARTESIAN_POINT('',(-9.716290291889,0.,49.2588190451));
#555=CARTESIAN_POINT('',(0.,0.,48.72940952249));
#556=CARTESIAN_POINT('',(0.,0.,49.));
#557=MECHANICAL_DESIGN_GEOMETRIC_PRESENTATION_REPRESENTATION('',(#306,#307,
#308,#309,#310,#311,#312),#558);
#558=(
GEOMETRIC_REPRESENTATION_CONTEXT(3)
GLOBAL_UNCERTAINTY_ASSIGNED_CONTEXT((#559))
GLOBAL_UNIT_ASSIGNED_CONTEXT((#565,#561,#560))
REPRESENTATION_CONTEXT('ST20-HC20-100_Basic','TOP_LEVEL_ASSEMBLY_PART')
);
#559=UNCERTAINTY_MEASURE_WITH_UNIT(LENGTH_MEASURE(2.E-5),#565,
'DISTANCE_ACCURACY_VALUE','Maximum Tolerance applied to model');
#560=(
NAMED_UNIT(*)
SI_UNIT($,.STERADIAN.)
SOLID_ANGLE_UNIT()
);
#561=(
CONVERSION_BASED_UNIT('DEGREE',#563)
NAMED_UNIT(#562)
PLANE_ANGLE_UNIT()
);
#562=DIMENSIONAL_EXPONENTS(0.,0.,0.,0.,0.,0.,0.);
#563=PLANE_ANGLE_MEASURE_WITH_UNIT(PLANE_ANGLE_MEASURE(0.0174532925),#564);
#564=(
NAMED_UNIT(*)
PLANE_ANGLE_UNIT()
SI_UNIT($,.RADIAN.)
);
#565=(
LENGTH_UNIT()
NAMED_UNIT(*)
SI_UNIT(.MILLI.,.METRE.)
);
ENDSEC;
END-ISO-10303-21;
