ISO-10303-21;
HEADER;
/* Generated by software containing ST-Developer
 * from STEP Tools, Inc. (www.steptools.com) 
 */
/* OPTION: using custom schema-name function */

FILE_DESCRIPTION(
/* description */ (''),
/* implementation_level */ '2;1');

FILE_NAME(
/* name */ 'ST20-HC12-100_Basic.stp',
/* time_stamp */ '2022-05-02T15:13:57+06:00',
/* author */ (''),
/* organization */ (''),
/* preprocessor_version */ 'ST-DEVELOPER v16.7',
/* originating_system */ 'SIEMENS PLM Software NX 12.0',
/* authorisation */ '');

FILE_SCHEMA (('AUTOMOTIVE_DESIGN { 1 0 10303 214 3 1 1 1 }'));
ENDSEC;

DATA;
#10=CONSTRUCTIVE_GEOMETRY_REPRESENTATION_RELATIONSHIP(
'supplemental geometry','',#34,#11);
#11=CONSTRUCTIVE_GEOMETRY_REPRESENTATION('supplemental geometry',(#317,
#318,#319),#538);
#12=GEOMETRICALLY_BOUNDED_WIREFRAME_SHAPE_REPRESENTATION(
'inpu1EECA5248oa1-None',(#35),#538);
#13=PROPERTY_DEFINITION_REPRESENTATION(#17,#15);
#14=PROPERTY_DEFINITION_REPRESENTATION(#18,#16);
#15=REPRESENTATION('',(#19),#538);
#16=REPRESENTATION('',(#20),#538);
#17=PROPERTY_DEFINITION('pmi validation property','',#25);
#18=PROPERTY_DEFINITION('pmi validation property','',#25);
#19=VALUE_REPRESENTATION_ITEM('number of annotations',COUNT_MEASURE(0.));
#20=VALUE_REPRESENTATION_ITEM('number of views',COUNT_MEASURE(0.));
#21=SHAPE_REPRESENTATION_RELATIONSHIP('None',
'relationship between inpu1EECA5248oa1-None and inpu1EECA5248oa1-None',
#34,#23);
#22=SHAPE_REPRESENTATION_RELATIONSHIP('None',
'relationship between inpu1EECA5248oa1-None and inpu1EECA5248oa1-None',
#34,#12);
#23=ADVANCED_BREP_SHAPE_REPRESENTATION('inpu1EECA5248oa1-None',(#41),#538);
#24=SHAPE_DEFINITION_REPRESENTATION(#25,#34);
#25=PRODUCT_DEFINITION_SHAPE('','',#26);
#26=PRODUCT_DEFINITION(' ','',#28,#27);
#27=PRODUCT_DEFINITION_CONTEXT('part definition',#33,'design');
#28=PRODUCT_DEFINITION_FORMATION_WITH_SPECIFIED_SOURCE(' ',' ',#30,
 .NOT_KNOWN.);
#29=PRODUCT_RELATED_PRODUCT_CATEGORY('part','',(#30));
#30=PRODUCT('inpu1EECA5248oa1','inpu1EECA5248oa1',' ',(#31));
#31=PRODUCT_CONTEXT(' ',#33,'mechanical');
#32=APPLICATION_PROTOCOL_DEFINITION('international standard',
'automotive_design',2010,#33);
#33=APPLICATION_CONTEXT(
'core data for automotive mechanical design processes');
#34=SHAPE_REPRESENTATION('inpu1EECA5248oa1-None',(#316),#538);
#35=GEOMETRIC_CURVE_SET('None',(#464,#465,#466));
#36=SURFACE_STYLE_USAGE(.BOTH.,#37);
#37=SURFACE_SIDE_STYLE('',(#38));
#38=SURFACE_STYLE_FILL_AREA(#39);
#39=FILL_AREA_STYLE('',(#40));
#40=FILL_AREA_STYLE_COLOUR('',#315);
#41=MANIFOLD_SOLID_BREP('NOCUT',#42);
#42=CLOSED_SHELL('',(#64,#65,#66,#67,#68,#69,#70,#71,#72,#73,#74,#75,#76,
#77,#78,#79,#80,#81,#82,#83,#84,#85,#86));
#43=FACE_OUTER_BOUND('',#169,.T.);
#44=FACE_OUTER_BOUND('',#172,.T.);
#45=PLANE('',#349);
#46=PLANE('',#354);
#47=PLANE('',#357);
#48=PLANE('',#361);
#49=TOROIDAL_SURFACE('',#332,12.8,0.8);
#50=TOROIDAL_SURFACE('',#337,12.8,0.8);
#51=TOROIDAL_SURFACE('',#342,12.8,0.8);
#52=TOROIDAL_SURFACE('',#350,11.5,1.);
#53=TOROIDAL_SURFACE('',#351,12.8,0.8);
#54=TOROIDAL_SURFACE('',#352,12.8,0.8);
#55=TOROIDAL_SURFACE('',#353,12.8,0.8);
#56=TOROIDAL_SURFACE('',#360,8.7503644656,1.);
#57=TOROIDAL_SURFACE('',#363,8.7503644656,1.);
#58=CYLINDRICAL_SURFACE('',#329,12.5);
#59=CYLINDRICAL_SURFACE('',#334,12.5);
#60=CYLINDRICAL_SURFACE('',#339,12.5);
#61=CYLINDRICAL_SURFACE('',#344,12.5);
#62=CYLINDRICAL_SURFACE('',#347,10.);
#63=CYLINDRICAL_SURFACE('',#356,6.);
#64=ADVANCED_FACE('',(#91,#92),#87,.F.);
#65=ADVANCED_FACE('',(#93,#94),#88,.T.);
#66=ADVANCED_FACE('',(#95,#96),#89,.T.);
#67=ADVANCED_FACE('',(#97,#98),#58,.T.);
#68=ADVANCED_FACE('',(#99,#100),#49,.F.);
#69=ADVANCED_FACE('',(#101,#102),#59,.T.);
#70=ADVANCED_FACE('',(#103,#104),#50,.F.);
#71=ADVANCED_FACE('',(#105,#106),#60,.T.);
#72=ADVANCED_FACE('',(#107,#108),#51,.F.);
#73=ADVANCED_FACE('',(#109,#110),#61,.T.);
#74=ADVANCED_FACE('',(#111,#112),#62,.T.);
#75=ADVANCED_FACE('',(#113,#114),#45,.F.);
#76=ADVANCED_FACE('',(#115,#116),#52,.T.);
#77=ADVANCED_FACE('',(#117,#118),#53,.F.);
#78=ADVANCED_FACE('',(#119,#120),#54,.F.);
#79=ADVANCED_FACE('',(#121,#122),#55,.F.);
#80=ADVANCED_FACE('',(#123,#124),#46,.F.);
#81=ADVANCED_FACE('',(#125,#126),#63,.F.);
#82=ADVANCED_FACE('',(#43),#47,.T.);
#83=ADVANCED_FACE('',(#127,#128),#56,.T.);
#84=ADVANCED_FACE('',(#44),#48,.F.);
#85=ADVANCED_FACE('',(#129,#130),#57,.T.);
#86=ADVANCED_FACE('',(#131,#132),#90,.T.);
#87=CONICAL_SURFACE('',#322,6.125,30.0000000001);
#88=CONICAL_SURFACE('',#325,9.996652497597,45.00000000015);
#89=CONICAL_SURFACE('',#327,11.49832624879,7.500000000024);
#90=CONICAL_SURFACE('',#364,9.85814514595,15.00000000005);
#91=FACE_BOUND('',#133,.T.);
#92=FACE_BOUND('',#134,.T.);
#93=FACE_BOUND('',#135,.T.);
#94=FACE_BOUND('',#136,.T.);
#95=FACE_BOUND('',#137,.T.);
#96=FACE_BOUND('',#138,.T.);
#97=FACE_BOUND('',#139,.T.);
#98=FACE_BOUND('',#140,.T.);
#99=FACE_BOUND('',#141,.T.);
#100=FACE_BOUND('',#142,.T.);
#101=FACE_BOUND('',#143,.T.);
#102=FACE_BOUND('',#144,.T.);
#103=FACE_BOUND('',#145,.T.);
#104=FACE_BOUND('',#146,.T.);
#105=FACE_BOUND('',#147,.T.);
#106=FACE_BOUND('',#148,.T.);
#107=FACE_BOUND('',#149,.T.);
#108=FACE_BOUND('',#150,.T.);
#109=FACE_BOUND('',#151,.T.);
#110=FACE_BOUND('',#152,.T.);
#111=FACE_BOUND('',#153,.T.);
#112=FACE_BOUND('',#154,.T.);
#113=FACE_BOUND('',#155,.T.);
#114=FACE_BOUND('',#156,.T.);
#115=FACE_BOUND('',#157,.T.);
#116=FACE_BOUND('',#158,.T.);
#117=FACE_BOUND('',#159,.T.);
#118=FACE_BOUND('',#160,.T.);
#119=FACE_BOUND('',#161,.T.);
#120=FACE_BOUND('',#162,.T.);
#121=FACE_BOUND('',#163,.T.);
#122=FACE_BOUND('',#164,.T.);
#123=FACE_BOUND('',#165,.T.);
#124=FACE_BOUND('',#166,.T.);
#125=FACE_BOUND('',#167,.T.);
#126=FACE_BOUND('',#168,.T.);
#127=FACE_BOUND('',#170,.T.);
#128=FACE_BOUND('',#171,.T.);
#129=FACE_BOUND('',#173,.T.);
#130=FACE_BOUND('',#174,.T.);
#131=FACE_BOUND('',#175,.T.);
#132=FACE_BOUND('',#176,.T.);
#133=EDGE_LOOP('',(#177));
#134=EDGE_LOOP('',(#178));
#135=EDGE_LOOP('',(#179));
#136=EDGE_LOOP('',(#180));
#137=EDGE_LOOP('',(#181));
#138=EDGE_LOOP('',(#182));
#139=EDGE_LOOP('',(#183));
#140=EDGE_LOOP('',(#184));
#141=EDGE_LOOP('',(#185));
#142=EDGE_LOOP('',(#186));
#143=EDGE_LOOP('',(#187));
#144=EDGE_LOOP('',(#188));
#145=EDGE_LOOP('',(#189));
#146=EDGE_LOOP('',(#190));
#147=EDGE_LOOP('',(#191));
#148=EDGE_LOOP('',(#192));
#149=EDGE_LOOP('',(#193));
#150=EDGE_LOOP('',(#194));
#151=EDGE_LOOP('',(#195));
#152=EDGE_LOOP('',(#196));
#153=EDGE_LOOP('',(#197));
#154=EDGE_LOOP('',(#198));
#155=EDGE_LOOP('',(#199));
#156=EDGE_LOOP('',(#200));
#157=EDGE_LOOP('',(#201));
#158=EDGE_LOOP('',(#202));
#159=EDGE_LOOP('',(#203));
#160=EDGE_LOOP('',(#204));
#161=EDGE_LOOP('',(#205));
#162=EDGE_LOOP('',(#206));
#163=EDGE_LOOP('',(#207));
#164=EDGE_LOOP('',(#208));
#165=EDGE_LOOP('',(#209));
#166=EDGE_LOOP('',(#210));
#167=EDGE_LOOP('',(#211));
#168=EDGE_LOOP('',(#212));
#169=EDGE_LOOP('',(#213));
#170=EDGE_LOOP('',(#214));
#171=EDGE_LOOP('',(#215));
#172=EDGE_LOOP('',(#216));
#173=EDGE_LOOP('',(#217));
#174=EDGE_LOOP('',(#218));
#175=EDGE_LOOP('',(#219));
#176=EDGE_LOOP('',(#220));
#177=ORIENTED_EDGE('',*,*,#243,.F.);
#178=ORIENTED_EDGE('',*,*,#244,.T.);
#179=ORIENTED_EDGE('',*,*,#245,.F.);
#180=ORIENTED_EDGE('',*,*,#246,.F.);
#181=ORIENTED_EDGE('',*,*,#247,.T.);
#182=ORIENTED_EDGE('',*,*,#245,.T.);
#183=ORIENTED_EDGE('',*,*,#248,.F.);
#184=ORIENTED_EDGE('',*,*,#247,.F.);
#185=ORIENTED_EDGE('',*,*,#249,.F.);
#186=ORIENTED_EDGE('',*,*,#250,.T.);
#187=ORIENTED_EDGE('',*,*,#250,.F.);
#188=ORIENTED_EDGE('',*,*,#251,.F.);
#189=ORIENTED_EDGE('',*,*,#252,.T.);
#190=ORIENTED_EDGE('',*,*,#253,.F.);
#191=ORIENTED_EDGE('',*,*,#254,.F.);
#192=ORIENTED_EDGE('',*,*,#252,.F.);
#193=ORIENTED_EDGE('',*,*,#255,.F.);
#194=ORIENTED_EDGE('',*,*,#256,.T.);
#195=ORIENTED_EDGE('',*,*,#256,.F.);
#196=ORIENTED_EDGE('',*,*,#257,.F.);
#197=ORIENTED_EDGE('',*,*,#258,.F.);
#198=ORIENTED_EDGE('',*,*,#259,.F.);
#199=ORIENTED_EDGE('',*,*,#258,.T.);
#200=ORIENTED_EDGE('',*,*,#260,.F.);
#201=ORIENTED_EDGE('',*,*,#257,.T.);
#202=ORIENTED_EDGE('',*,*,#260,.T.);
#203=ORIENTED_EDGE('',*,*,#255,.T.);
#204=ORIENTED_EDGE('',*,*,#254,.T.);
#205=ORIENTED_EDGE('',*,*,#251,.T.);
#206=ORIENTED_EDGE('',*,*,#253,.T.);
#207=ORIENTED_EDGE('',*,*,#249,.T.);
#208=ORIENTED_EDGE('',*,*,#248,.T.);
#209=ORIENTED_EDGE('',*,*,#243,.T.);
#210=ORIENTED_EDGE('',*,*,#246,.T.);
#211=ORIENTED_EDGE('',*,*,#244,.F.);
#212=ORIENTED_EDGE('',*,*,#261,.F.);
#213=ORIENTED_EDGE('',*,*,#261,.T.);
#214=ORIENTED_EDGE('',*,*,#262,.F.);
#215=ORIENTED_EDGE('',*,*,#263,.F.);
#216=ORIENTED_EDGE('',*,*,#262,.T.);
#217=ORIENTED_EDGE('',*,*,#264,.T.);
#218=ORIENTED_EDGE('',*,*,#263,.T.);
#219=ORIENTED_EDGE('',*,*,#264,.F.);
#220=ORIENTED_EDGE('',*,*,#259,.T.);
#221=VERTEX_POINT('',#471);
#222=VERTEX_POINT('',#473);
#223=VERTEX_POINT('',#476);
#224=VERTEX_POINT('',#478);
#225=VERTEX_POINT('',#481);
#226=VERTEX_POINT('',#484);
#227=VERTEX_POINT('',#487);
#228=VERTEX_POINT('',#489);
#229=VERTEX_POINT('',#492);
#230=VERTEX_POINT('',#495);
#231=VERTEX_POINT('',#497);
#232=VERTEX_POINT('',#500);
#233=VERTEX_POINT('',#503);
#234=VERTEX_POINT('',#505);
#235=VERTEX_POINT('',#508);
#236=VERTEX_POINT('',#511);
#237=VERTEX_POINT('',#513);
#238=VERTEX_POINT('',#516);
#239=VERTEX_POINT('',#524);
#240=VERTEX_POINT('',#528);
#241=VERTEX_POINT('',#530);
#242=VERTEX_POINT('',#534);
#243=EDGE_CURVE('',#221,#221,#265,.T.);
#244=EDGE_CURVE('',#222,#222,#266,.T.);
#245=EDGE_CURVE('',#223,#223,#267,.T.);
#246=EDGE_CURVE('',#224,#224,#268,.T.);
#247=EDGE_CURVE('',#225,#225,#269,.T.);
#248=EDGE_CURVE('',#226,#226,#270,.T.);
#249=EDGE_CURVE('',#227,#227,#271,.T.);
#250=EDGE_CURVE('',#228,#228,#272,.T.);
#251=EDGE_CURVE('',#229,#229,#273,.T.);
#252=EDGE_CURVE('',#230,#230,#274,.T.);
#253=EDGE_CURVE('',#231,#231,#275,.T.);
#254=EDGE_CURVE('',#232,#232,#276,.T.);
#255=EDGE_CURVE('',#233,#233,#277,.T.);
#256=EDGE_CURVE('',#234,#234,#278,.T.);
#257=EDGE_CURVE('',#235,#235,#279,.T.);
#258=EDGE_CURVE('',#236,#236,#280,.T.);
#259=EDGE_CURVE('',#237,#237,#281,.T.);
#260=EDGE_CURVE('',#238,#238,#282,.T.);
#261=EDGE_CURVE('',#239,#239,#283,.T.);
#262=EDGE_CURVE('',#240,#240,#284,.T.);
#263=EDGE_CURVE('',#241,#241,#285,.T.);
#264=EDGE_CURVE('',#242,#242,#286,.T.);
#265=CIRCLE('',#320,6.250000000001);
#266=CIRCLE('',#321,6.);
#267=CIRCLE('',#323,10.49665249758);
#268=CIRCLE('',#324,9.496652497595);
#269=CIRCLE('',#326,12.5);
#270=CIRCLE('',#328,12.5);
#271=CIRCLE('',#330,12.);
#272=CIRCLE('',#331,12.5);
#273=CIRCLE('',#333,12.5);
#274=CIRCLE('',#335,12.5);
#275=CIRCLE('',#336,12.);
#276=CIRCLE('',#338,12.5);
#277=CIRCLE('',#340,12.);
#278=CIRCLE('',#341,12.5);
#279=CIRCLE('',#343,12.5);
#280=CIRCLE('',#345,10.);
#281=CIRCLE('',#346,10.);
#282=CIRCLE('',#348,11.5);
#283=CIRCLE('',#355,6.);
#284=CIRCLE('',#358,8.7503644656);
#285=CIRCLE('',#359,9.35912589461);
#286=CIRCLE('',#362,9.716290291889);
#287=CURVE_STYLE('',#290,POSITIVE_LENGTH_MEASURE(0.18),#314);
#288=CURVE_STYLE('',#291,POSITIVE_LENGTH_MEASURE(0.18),#314);
#289=CURVE_STYLE('',#292,POSITIVE_LENGTH_MEASURE(0.18),#314);
#290=DRAUGHTING_PRE_DEFINED_CURVE_FONT('continuous');
#291=DRAUGHTING_PRE_DEFINED_CURVE_FONT('continuous');
#292=DRAUGHTING_PRE_DEFINED_CURVE_FONT('continuous');
#293=PRESENTATION_LAYER_ASSIGNMENT('1','Layer 1',(#464,#465,#466,#317,#318,
#319,#41));
#294=STYLED_ITEM('',(#301),#464);
#295=STYLED_ITEM('',(#302),#465);
#296=STYLED_ITEM('',(#303),#466);
#297=STYLED_ITEM('',(#304),#317);
#298=STYLED_ITEM('',(#305),#318);
#299=STYLED_ITEM('',(#306),#319);
#300=STYLED_ITEM('',(#307),#41);
#301=PRESENTATION_STYLE_ASSIGNMENT((#308));
#302=PRESENTATION_STYLE_ASSIGNMENT((#309));
#303=PRESENTATION_STYLE_ASSIGNMENT((#310));
#304=PRESENTATION_STYLE_ASSIGNMENT((#287));
#305=PRESENTATION_STYLE_ASSIGNMENT((#288));
#306=PRESENTATION_STYLE_ASSIGNMENT((#289));
#307=PRESENTATION_STYLE_ASSIGNMENT((#36));
#308=POINT_STYLE('',#311,POSITIVE_LENGTH_MEASURE(3.),#314);
#309=POINT_STYLE('',#312,POSITIVE_LENGTH_MEASURE(3.),#314);
#310=POINT_STYLE('',#313,POSITIVE_LENGTH_MEASURE(3.),#314);
#311=PRE_DEFINED_POINT_MARKER_SYMBOL('plus');
#312=PRE_DEFINED_POINT_MARKER_SYMBOL('plus');
#313=PRE_DEFINED_POINT_MARKER_SYMBOL('plus');
#314=COLOUR_RGB('Strong Stone',0.576470588235294,0.54508278019379,0.392156862745098);
#315=COLOUR_RGB('Medium Gray',0.490196078431373,0.490196078431373,0.490196078431373);
#316=AXIS2_PLACEMENT_3D('',#463,#365,#366);
#317=AXIS2_PLACEMENT_3D('MCS',#467,#367,#368);
#318=AXIS2_PLACEMENT_3D('PCS',#468,#369,#370);
#319=AXIS2_PLACEMENT_3D('CSW',#469,#371,#372);
#320=AXIS2_PLACEMENT_3D('',#470,#373,#374);
#321=AXIS2_PLACEMENT_3D('',#472,#375,#376);
#322=AXIS2_PLACEMENT_3D('',#474,#377,#378);
#323=AXIS2_PLACEMENT_3D('',#475,#379,#380);
#324=AXIS2_PLACEMENT_3D('',#477,#381,#382);
#325=AXIS2_PLACEMENT_3D('',#479,#383,#384);
#326=AXIS2_PLACEMENT_3D('',#480,#385,#386);
#327=AXIS2_PLACEMENT_3D('',#482,#387,#388);
#328=AXIS2_PLACEMENT_3D('',#483,#389,#390);
#329=AXIS2_PLACEMENT_3D('',#485,#391,#392);
#330=AXIS2_PLACEMENT_3D('',#486,#393,#394);
#331=AXIS2_PLACEMENT_3D('',#488,#395,#396);
#332=AXIS2_PLACEMENT_3D('',#490,#397,#398);
#333=AXIS2_PLACEMENT_3D('',#491,#399,#400);
#334=AXIS2_PLACEMENT_3D('',#493,#401,#402);
#335=AXIS2_PLACEMENT_3D('',#494,#403,#404);
#336=AXIS2_PLACEMENT_3D('',#496,#405,#406);
#337=AXIS2_PLACEMENT_3D('',#498,#407,#408);
#338=AXIS2_PLACEMENT_3D('',#499,#409,#410);
#339=AXIS2_PLACEMENT_3D('',#501,#411,#412);
#340=AXIS2_PLACEMENT_3D('',#502,#413,#414);
#341=AXIS2_PLACEMENT_3D('',#504,#415,#416);
#342=AXIS2_PLACEMENT_3D('',#506,#417,#418);
#343=AXIS2_PLACEMENT_3D('',#507,#419,#420);
#344=AXIS2_PLACEMENT_3D('',#509,#421,#422);
#345=AXIS2_PLACEMENT_3D('',#510,#423,#424);
#346=AXIS2_PLACEMENT_3D('',#512,#425,#426);
#347=AXIS2_PLACEMENT_3D('',#514,#427,#428);
#348=AXIS2_PLACEMENT_3D('',#515,#429,#430);
#349=AXIS2_PLACEMENT_3D('',#517,#431,#432);
#350=AXIS2_PLACEMENT_3D('',#518,#433,#434);
#351=AXIS2_PLACEMENT_3D('',#519,#435,#436);
#352=AXIS2_PLACEMENT_3D('',#520,#437,#438);
#353=AXIS2_PLACEMENT_3D('',#521,#439,#440);
#354=AXIS2_PLACEMENT_3D('',#522,#441,#442);
#355=AXIS2_PLACEMENT_3D('',#523,#443,#444);
#356=AXIS2_PLACEMENT_3D('',#525,#445,#446);
#357=AXIS2_PLACEMENT_3D('',#526,#447,#448);
#358=AXIS2_PLACEMENT_3D('',#527,#449,#450);
#359=AXIS2_PLACEMENT_3D('',#529,#451,#452);
#360=AXIS2_PLACEMENT_3D('',#531,#453,#454);
#361=AXIS2_PLACEMENT_3D('',#532,#455,#456);
#362=AXIS2_PLACEMENT_3D('',#533,#457,#458);
#363=AXIS2_PLACEMENT_3D('',#535,#459,#460);
#364=AXIS2_PLACEMENT_3D('',#536,#461,#462);
#365=DIRECTION('',(0.,0.,1.));
#366=DIRECTION('',(1.,0.,0.));
#367=DIRECTION('',(0.,0.,1.));
#368=DIRECTION('',(1.,0.,0.));
#369=DIRECTION('',(0.,0.,1.));
#370=DIRECTION('',(1.,0.,0.));
#371=DIRECTION('',(0.,0.,1.));
#372=DIRECTION('',(1.,0.,0.));
#373=DIRECTION('',(0.,0.,1.));
#374=DIRECTION('',(-1.,0.,0.));
#375=DIRECTION('',(0.,0.,1.));
#376=DIRECTION('',(-1.,0.,0.));
#377=DIRECTION('',(0.,0.,-1.));
#378=DIRECTION('',(-1.,0.,-7.13541183692341E-17));
#379=DIRECTION('',(0.,0.,1.));
#380=DIRECTION('',(-1.,0.,0.));
#381=DIRECTION('',(0.,0.,-1.));
#382=DIRECTION('',(1.,0.,0.));
#383=DIRECTION('',(0.,0.,1.));
#384=DIRECTION('',(1.,0.,-4.12212885263267E-17));
#385=DIRECTION('',(0.,0.,-1.));
#386=DIRECTION('',(1.,0.,0.));
#387=DIRECTION('',(0.,0.,1.));
#388=DIRECTION('',(1.,0.,-9.694521788889E-17));
#389=DIRECTION('',(0.,0.,1.));
#390=DIRECTION('',(-1.,0.,0.));
#391=DIRECTION('',(0.,0.,1.));
#392=DIRECTION('',(-1.,0.,0.));
#393=DIRECTION('',(0.,0.,-1.));
#394=DIRECTION('',(1.,0.,0.));
#395=DIRECTION('',(0.,0.,-1.));
#396=DIRECTION('',(1.,0.,0.));
#397=DIRECTION('',(0.,0.,-1.));
#398=DIRECTION('',(-1.,0.,0.));
#399=DIRECTION('',(0.,0.,1.));
#400=DIRECTION('',(-1.,0.,0.));
#401=DIRECTION('',(0.,0.,1.));
#402=DIRECTION('',(-1.,0.,0.));
#403=DIRECTION('',(0.,0.,-1.));
#404=DIRECTION('',(1.,0.,0.));
#405=DIRECTION('',(0.,0.,-1.));
#406=DIRECTION('',(1.,0.,0.));
#407=DIRECTION('',(0.,0.,-1.));
#408=DIRECTION('',(-1.,0.,0.));
#409=DIRECTION('',(0.,0.,1.));
#410=DIRECTION('',(-1.,0.,0.));
#411=DIRECTION('',(0.,0.,1.));
#412=DIRECTION('',(-1.,0.,0.));
#413=DIRECTION('',(0.,0.,-1.));
#414=DIRECTION('',(1.,0.,0.));
#415=DIRECTION('',(0.,0.,-1.));
#416=DIRECTION('',(1.,0.,0.));
#417=DIRECTION('',(0.,0.,-1.));
#418=DIRECTION('',(-1.,0.,0.));
#419=DIRECTION('',(0.,0.,1.));
#420=DIRECTION('',(-1.,0.,0.));
#421=DIRECTION('',(0.,0.,1.));
#422=DIRECTION('',(-1.,0.,0.));
#423=DIRECTION('',(0.,0.,-1.));
#424=DIRECTION('',(1.,0.,0.));
#425=DIRECTION('',(0.,0.,1.));
#426=DIRECTION('',(-1.,0.,0.));
#427=DIRECTION('',(0.,0.,1.));
#428=DIRECTION('',(-1.,0.,0.));
#429=DIRECTION('',(0.,0.,-1.));
#430=DIRECTION('',(-1.,0.,0.));
#431=DIRECTION('',(0.,0.,-1.));
#432=DIRECTION('',(-1.,0.,0.));
#433=DIRECTION('',(0.,0.,-1.));
#434=DIRECTION('',(-1.,0.,0.));
#435=DIRECTION('',(0.,0.,-1.));
#436=DIRECTION('',(-1.,0.,0.));
#437=DIRECTION('',(0.,0.,-1.));
#438=DIRECTION('',(-1.,0.,0.));
#439=DIRECTION('',(0.,0.,-1.));
#440=DIRECTION('',(-1.,0.,0.));
#441=DIRECTION('',(0.,0.,1.));
#442=DIRECTION('',(1.,0.,0.));
#443=DIRECTION('',(0.,0.,-1.));
#444=DIRECTION('',(1.,0.,0.));
#445=DIRECTION('',(0.,0.,1.));
#446=DIRECTION('',(-1.,0.,0.));
#447=DIRECTION('',(0.,0.,-1.));
#448=DIRECTION('',(-1.,0.,0.));
#449=DIRECTION('',(0.,0.,1.));
#450=DIRECTION('',(-1.,0.,0.));
#451=DIRECTION('',(0.,0.,-1.));
#452=DIRECTION('',(1.,0.,0.));
#453=DIRECTION('',(0.,0.,-1.));
#454=DIRECTION('',(-1.,0.,0.));
#455=DIRECTION('',(0.,0.,-1.));
#456=DIRECTION('',(-1.,0.,0.));
#457=DIRECTION('',(0.,0.,1.));
#458=DIRECTION('',(-1.,0.,0.));
#459=DIRECTION('',(0.,0.,-1.));
#460=DIRECTION('',(-1.,0.,0.));
#461=DIRECTION('',(0.,0.,-1.));
#462=DIRECTION('',(-1.,0.,1.7484152056895E-16));
#463=CARTESIAN_POINT('',(0.,0.,0.));
#464=CARTESIAN_POINT('',(0.,0.,0.));
#465=CARTESIAN_POINT('',(0.,0.,0.));
#466=CARTESIAN_POINT('',(0.,0.,-100.));
#467=CARTESIAN_POINT('',(0.,0.,0.));
#468=CARTESIAN_POINT('',(0.,0.,0.));
#469=CARTESIAN_POINT('',(0.,0.,-100.));
#470=CARTESIAN_POINT('',(0.,0.,-100.));
#471=CARTESIAN_POINT('',(-6.250000000001,0.,-100.));
#472=CARTESIAN_POINT('',(0.,0.,-99.56698729811));
#473=CARTESIAN_POINT('',(-6.,0.,-99.56698729811));
#474=CARTESIAN_POINT('',(0.,0.,-99.78349364905));
#475=CARTESIAN_POINT('',(0.,0.,-99.00000000002));
#476=CARTESIAN_POINT('',(-10.49665249758,0.,-99.00000000002));
#477=CARTESIAN_POINT('',(0.,0.,-100.));
#478=CARTESIAN_POINT('',(9.496652497595,0.,-100.));
#479=CARTESIAN_POINT('',(0.,0.,-99.5));
#480=CARTESIAN_POINT('',(0.,0.,-83.78306496933));
#481=CARTESIAN_POINT('',(12.5,0.,-83.78306496933));
#482=CARTESIAN_POINT('',(0.,0.,-91.39153248468));
#483=CARTESIAN_POINT('',(0.,0.,-61.74161984871));
#484=CARTESIAN_POINT('',(-12.5,0.,-61.74161984871));
#485=CARTESIAN_POINT('',(0.,0.,-9.99999999999999));
#486=CARTESIAN_POINT('',(0.,0.,-61.));
#487=CARTESIAN_POINT('',(12.,0.,-61.));
#488=CARTESIAN_POINT('',(0.,0.,-60.25838015129));
#489=CARTESIAN_POINT('',(12.5,0.,-60.25838015129));
#490=CARTESIAN_POINT('',(0.,0.,-61.));
#491=CARTESIAN_POINT('',(0.,0.,-59.24161984871));
#492=CARTESIAN_POINT('',(-12.5,0.,-59.24161984871));
#493=CARTESIAN_POINT('',(0.,0.,-9.99999999999999));
#494=CARTESIAN_POINT('',(0.,0.,-57.75838015129));
#495=CARTESIAN_POINT('',(12.5,0.,-57.75838015129));
#496=CARTESIAN_POINT('',(0.,0.,-58.5));
#497=CARTESIAN_POINT('',(12.,0.,-58.5));
#498=CARTESIAN_POINT('',(0.,0.,-58.5));
#499=CARTESIAN_POINT('',(0.,0.,-56.74161984871));
#500=CARTESIAN_POINT('',(-12.5,0.,-56.74161984871));
#501=CARTESIAN_POINT('',(0.,0.,-9.99999999999999));
#502=CARTESIAN_POINT('',(0.,0.,-56.));
#503=CARTESIAN_POINT('',(12.,0.,-56.));
#504=CARTESIAN_POINT('',(0.,0.,-55.25838015129));
#505=CARTESIAN_POINT('',(12.5,0.,-55.25838015129));
#506=CARTESIAN_POINT('',(0.,0.,-56.));
#507=CARTESIAN_POINT('',(0.,0.,-1.));
#508=CARTESIAN_POINT('',(-12.5,0.,-1.));
#509=CARTESIAN_POINT('',(0.,0.,-9.99999999999999));
#510=CARTESIAN_POINT('',(0.,0.,0.));
#511=CARTESIAN_POINT('',(10.,0.,0.));
#512=CARTESIAN_POINT('',(0.,0.,48.19999999988));
#513=CARTESIAN_POINT('',(-10.,0.,48.19999999988));
#514=CARTESIAN_POINT('',(0.,0.,-9.99999999999999));
#515=CARTESIAN_POINT('',(0.,0.,0.));
#516=CARTESIAN_POINT('',(-11.5,0.,0.));
#517=CARTESIAN_POINT('',(0.,10.,0.));
#518=CARTESIAN_POINT('',(0.,0.,-1.));
#519=CARTESIAN_POINT('',(0.,0.,-56.));
#520=CARTESIAN_POINT('',(0.,0.,-58.5));
#521=CARTESIAN_POINT('',(0.,0.,-61.));
#522=CARTESIAN_POINT('',(0.,9.496652497587,-100.));
#523=CARTESIAN_POINT('',(0.,0.,-54.));
#524=CARTESIAN_POINT('',(6.,0.,-54.));
#525=CARTESIAN_POINT('',(0.,0.,-100.));
#526=CARTESIAN_POINT('',(0.,1.5,-54.));
#527=CARTESIAN_POINT('',(0.,0.,50.));
#528=CARTESIAN_POINT('',(-8.7503644656,0.,50.));
#529=CARTESIAN_POINT('',(0.,0.,49.79335334029));
#530=CARTESIAN_POINT('',(9.35912589461,0.,49.79335334029));
#531=CARTESIAN_POINT('',(0.,0.,49.));
#532=CARTESIAN_POINT('',(0.,0.,50.));
#533=CARTESIAN_POINT('',(0.,0.,49.2588190451));
#534=CARTESIAN_POINT('',(-9.716290291889,0.,49.2588190451));
#535=CARTESIAN_POINT('',(0.,0.,49.));
#536=CARTESIAN_POINT('',(0.,0.,48.72940952249));
#537=MECHANICAL_DESIGN_GEOMETRIC_PRESENTATION_REPRESENTATION('',(#294,#295,
#296,#297,#298,#299,#300),#538);
#538=(
GEOMETRIC_REPRESENTATION_CONTEXT(3)
GLOBAL_UNCERTAINTY_ASSIGNED_CONTEXT((#539))
GLOBAL_UNIT_ASSIGNED_CONTEXT((#545,#541,#540))
REPRESENTATION_CONTEXT('ST20-HC12-100_Basic','TOP_LEVEL_ASSEMBLY_PART')
);
#539=UNCERTAINTY_MEASURE_WITH_UNIT(LENGTH_MEASURE(2.E-5),#545,
'DISTANCE_ACCURACY_VALUE','Maximum Tolerance applied to model');
#540=(
NAMED_UNIT(*)
SI_UNIT($,.STERADIAN.)
SOLID_ANGLE_UNIT()
);
#541=(
CONVERSION_BASED_UNIT('DEGREE',#543)
NAMED_UNIT(#542)
PLANE_ANGLE_UNIT()
);
#542=DIMENSIONAL_EXPONENTS(0.,0.,0.,0.,0.,0.,0.);
#543=PLANE_ANGLE_MEASURE_WITH_UNIT(PLANE_ANGLE_MEASURE(0.0174532925),#544);
#544=(
NAMED_UNIT(*)
PLANE_ANGLE_UNIT()
SI_UNIT($,.RADIAN.)
);
#545=(
LENGTH_UNIT()
NAMED_UNIT(*)
SI_UNIT(.MILLI.,.METRE.)
);
ENDSEC;
END-ISO-10303-21;
