ISO-10303-21;
HEADER;
/* Generated by software containing ST-Developer
 * from STEP Tools, Inc. (www.steptools.com) 
 */
/* OPTION: using custom schema-name function */

FILE_DESCRIPTION(
/* description */ (''),
/* implementation_level */ '2;1');

FILE_NAME(
/* name */ 'G6-HC25-100_Basic.stp',
/* time_stamp */ '2022-04-13T11:50:14+05:00',
/* author */ (''),
/* organization */ (''),
/* preprocessor_version */ 'ST-DEVELOPER v16.7',
/* originating_system */ 'SIEMENS PLM Software NX 12.0',
/* authorisation */ '');

FILE_SCHEMA (('AUTOMOTIVE_DESIGN { 1 0 10303 214 3 1 1 1 }'));
ENDSEC;

DATA;
#10=CONSTRUCTIVE_GEOMETRY_REPRESENTATION_RELATIONSHIP(
'supplemental geometry','',#34,#11);
#11=CONSTRUCTIVE_GEOMETRY_REPRESENTATION('supplemental geometry',(#368,
#369,#370),#605);
#12=GEOMETRICALLY_BOUNDED_WIREFRAME_SHAPE_REPRESENTATION(
'inpu8D40A81B6a22-None',(#35),#605);
#13=PROPERTY_DEFINITION_REPRESENTATION(#17,#15);
#14=PROPERTY_DEFINITION_REPRESENTATION(#18,#16);
#15=REPRESENTATION('',(#19),#605);
#16=REPRESENTATION('',(#20),#605);
#17=PROPERTY_DEFINITION('pmi validation property','',#25);
#18=PROPERTY_DEFINITION('pmi validation property','',#25);
#19=VALUE_REPRESENTATION_ITEM('number of annotations',COUNT_MEASURE(0.));
#20=VALUE_REPRESENTATION_ITEM('number of views',COUNT_MEASURE(0.));
#21=SHAPE_REPRESENTATION_RELATIONSHIP('None',
'relationship between inpu8D40A81B6a22-None and inpu8D40A81B6a22-None',
#34,#23);
#22=SHAPE_REPRESENTATION_RELATIONSHIP('None',
'relationship between inpu8D40A81B6a22-None and inpu8D40A81B6a22-None',
#34,#12);
#23=ADVANCED_BREP_SHAPE_REPRESENTATION('inpu8D40A81B6a22-None',(#68,#69),
#605);
#24=SHAPE_DEFINITION_REPRESENTATION(#25,#34);
#25=PRODUCT_DEFINITION_SHAPE('','',#26);
#26=PRODUCT_DEFINITION(' ','',#28,#27);
#27=PRODUCT_DEFINITION_CONTEXT('part definition',#33,'design');
#28=PRODUCT_DEFINITION_FORMATION_WITH_SPECIFIED_SOURCE(' ',' ',#30,
 .NOT_KNOWN.);
#29=PRODUCT_RELATED_PRODUCT_CATEGORY('part','',(#30));
#30=PRODUCT('inpu8D40A81B6a22','inpu8D40A81B6a22',' ',(#31));
#31=PRODUCT_CONTEXT(' ',#33,'mechanical');
#32=APPLICATION_PROTOCOL_DEFINITION('international standard',
'automotive_design',2010,#33);
#33=APPLICATION_CONTEXT(
'core data for automotive mechanical design processes');
#34=SHAPE_REPRESENTATION('inpu8D40A81B6a22-None',(#367),#605);
#35=GEOMETRIC_CURVE_SET('None',(#501,#502,#503));
#36=CONICAL_SURFACE('',#390,30.9,45.);
#37=CONICAL_SURFACE('',#394,30.25,60.);
#38=CONICAL_SURFACE('',#398,27.75040170515,10.);
#39=B_SPLINE_CURVE_WITH_KNOTS('',3,(#557,#558,#559,#560),.UNSPECIFIED.,
 .F.,.F.,(4,4),(0.,1.),.UNSPECIFIED.);
#40=B_SPLINE_CURVE_WITH_KNOTS('',3,(#561,#562,#563,#564),.UNSPECIFIED.,
 .F.,.F.,(4,4),(0.,1.),.UNSPECIFIED.);
#41=B_SPLINE_CURVE_WITH_KNOTS('',3,(#566,#567,#568,#569,#570,#571,#572,
#573,#574,#575),.UNSPECIFIED.,.F.,.F.,(4,2,2,2,4),(0.,0.25,0.5,0.75,1.),
 .UNSPECIFIED.);
#42=FACE_BOUND('',#131,.T.);
#43=FACE_BOUND('',#132,.T.);
#44=FACE_BOUND('',#134,.T.);
#45=FACE_BOUND('',#135,.T.);
#46=FACE_BOUND('',#136,.T.);
#47=FACE_BOUND('',#137,.T.);
#48=FACE_BOUND('',#139,.T.);
#49=FACE_BOUND('',#140,.T.);
#50=FACE_BOUND('',#141,.T.);
#51=FACE_BOUND('',#142,.T.);
#52=FACE_BOUND('',#143,.T.);
#53=FACE_BOUND('',#144,.T.);
#54=FACE_BOUND('',#145,.T.);
#55=FACE_BOUND('',#146,.T.);
#56=FACE_BOUND('',#147,.T.);
#57=FACE_BOUND('',#148,.T.);
#58=SURFACE_STYLE_USAGE(.BOTH.,#60);
#59=SURFACE_STYLE_USAGE(.BOTH.,#61);
#60=SURFACE_SIDE_STYLE('',(#62));
#61=SURFACE_SIDE_STYLE('',(#63));
#62=SURFACE_STYLE_FILL_AREA(#64);
#63=SURFACE_STYLE_FILL_AREA(#65);
#64=FILL_AREA_STYLE('',(#66));
#65=FILL_AREA_STYLE('',(#67));
#66=FILL_AREA_STYLE_COLOUR('',#365);
#67=FILL_AREA_STYLE_COLOUR('',#366);
#68=MANIFOLD_SOLID_BREP('NOCUT',#70);
#69=MANIFOLD_SOLID_BREP('NOCUT',#71);
#70=CLOSED_SHELL('',(#78,#79,#80,#81,#82,#83));
#71=CLOSED_SHELL('',(#84,#85,#86,#87,#88,#89,#90,#91,#92,#93,#94,#95,#96,
#97,#98));
#72=CYLINDRICAL_SURFACE('',#377,8.);
#73=CYLINDRICAL_SURFACE('',#382,18.);
#74=CYLINDRICAL_SURFACE('',#386,12.5);
#75=CYLINDRICAL_SURFACE('',#392,31.5);
#76=CYLINDRICAL_SURFACE('',#399,29.);
#77=CYLINDRICAL_SURFACE('',#402,8.01);
#78=ADVANCED_FACE('',(#111),#99,.F.);
#79=ADVANCED_FACE('',(#112),#100,.T.);
#80=ADVANCED_FACE('',(#113),#101,.T.);
#81=ADVANCED_FACE('',(#114),#102,.T.);
#82=ADVANCED_FACE('',(#115),#72,.T.);
#83=ADVANCED_FACE('',(#116),#103,.T.);
#84=ADVANCED_FACE('',(#117),#104,.F.);
#85=ADVANCED_FACE('',(#42,#43),#73,.T.);
#86=ADVANCED_FACE('',(#118),#105,.F.);
#87=ADVANCED_FACE('',(#44,#45),#74,.F.);
#88=ADVANCED_FACE('',(#46,#47),#106,.F.);
#89=ADVANCED_FACE('',(#119),#36,.T.);
#90=ADVANCED_FACE('',(#48,#49),#75,.T.);
#91=ADVANCED_FACE('',(#50,#51),#37,.T.);
#92=ADVANCED_FACE('',(#52,#53),#107,.T.);
#93=ADVANCED_FACE('',(#54,#55),#38,.T.);
#94=ADVANCED_FACE('',(#56,#57),#76,.T.);
#95=ADVANCED_FACE('',(#120),#108,.T.);
#96=ADVANCED_FACE('',(#121),#77,.F.);
#97=ADVANCED_FACE('',(#122),#109,.F.);
#98=ADVANCED_FACE('',(#123),#110,.F.);
#99=PLANE('',#372);
#100=PLANE('',#373);
#101=PLANE('',#374);
#102=PLANE('',#375);
#103=PLANE('',#378);
#104=PLANE('',#380);
#105=PLANE('',#384);
#106=PLANE('',#388);
#107=PLANE('',#396);
#108=PLANE('',#401);
#109=PLANE('',#403);
#110=PLANE('',#404);
#111=FACE_OUTER_BOUND('',#124,.T.);
#112=FACE_OUTER_BOUND('',#125,.T.);
#113=FACE_OUTER_BOUND('',#126,.T.);
#114=FACE_OUTER_BOUND('',#127,.T.);
#115=FACE_OUTER_BOUND('',#128,.T.);
#116=FACE_OUTER_BOUND('',#129,.T.);
#117=FACE_OUTER_BOUND('',#130,.T.);
#118=FACE_OUTER_BOUND('',#133,.T.);
#119=FACE_OUTER_BOUND('',#138,.T.);
#120=FACE_OUTER_BOUND('',#149,.T.);
#121=FACE_OUTER_BOUND('',#150,.T.);
#122=FACE_OUTER_BOUND('',#151,.T.);
#123=FACE_OUTER_BOUND('',#152,.T.);
#124=EDGE_LOOP('',(#166,#167,#168,#169));
#125=EDGE_LOOP('',(#170,#171,#172,#173));
#126=EDGE_LOOP('',(#174,#175,#176,#177));
#127=EDGE_LOOP('',(#178,#179,#180,#181));
#128=EDGE_LOOP('',(#182,#183,#184,#185));
#129=EDGE_LOOP('',(#186,#187,#188,#189));
#130=EDGE_LOOP('',(#190));
#131=EDGE_LOOP('',(#191));
#132=EDGE_LOOP('',(#192));
#133=EDGE_LOOP('',(#193));
#134=EDGE_LOOP('',(#194));
#135=EDGE_LOOP('',(#195));
#136=EDGE_LOOP('',(#196));
#137=EDGE_LOOP('',(#197,#198,#199,#200));
#138=EDGE_LOOP('',(#201,#202,#203,#204));
#139=EDGE_LOOP('',(#205,#206,#207,#208));
#140=EDGE_LOOP('',(#209));
#141=EDGE_LOOP('',(#210));
#142=EDGE_LOOP('',(#211));
#143=EDGE_LOOP('',(#212));
#144=EDGE_LOOP('',(#213));
#145=EDGE_LOOP('',(#214));
#146=EDGE_LOOP('',(#215));
#147=EDGE_LOOP('',(#216));
#148=EDGE_LOOP('',(#217));
#149=EDGE_LOOP('',(#218,#219,#220,#221));
#150=EDGE_LOOP('',(#222,#223,#224,#225));
#151=EDGE_LOOP('',(#226,#227,#228,#229,#230));
#152=EDGE_LOOP('',(#231,#232,#233,#234,#235));
#153=CIRCLE('',#371,8.);
#154=CIRCLE('',#376,8.);
#155=CIRCLE('',#379,18.);
#156=CIRCLE('',#381,18.);
#157=CIRCLE('',#383,12.5);
#158=CIRCLE('',#385,12.5);
#159=CIRCLE('',#387,30.3);
#160=CIRCLE('',#389,31.5);
#161=CIRCLE('',#391,31.5);
#162=CIRCLE('',#393,29.);
#163=CIRCLE('',#395,26.3550952893716);
#164=CIRCLE('',#397,29.);
#165=CIRCLE('',#400,8.01);
#166=ORIENTED_EDGE('',*,*,#262,.F.);
#167=ORIENTED_EDGE('',*,*,#263,.F.);
#168=ORIENTED_EDGE('',*,*,#264,.F.);
#169=ORIENTED_EDGE('',*,*,#265,.F.);
#170=ORIENTED_EDGE('',*,*,#266,.T.);
#171=ORIENTED_EDGE('',*,*,#267,.F.);
#172=ORIENTED_EDGE('',*,*,#268,.F.);
#173=ORIENTED_EDGE('',*,*,#262,.T.);
#174=ORIENTED_EDGE('',*,*,#263,.T.);
#175=ORIENTED_EDGE('',*,*,#268,.T.);
#176=ORIENTED_EDGE('',*,*,#269,.F.);
#177=ORIENTED_EDGE('',*,*,#270,.F.);
#178=ORIENTED_EDGE('',*,*,#264,.T.);
#179=ORIENTED_EDGE('',*,*,#270,.T.);
#180=ORIENTED_EDGE('',*,*,#271,.F.);
#181=ORIENTED_EDGE('',*,*,#272,.F.);
#182=ORIENTED_EDGE('',*,*,#272,.T.);
#183=ORIENTED_EDGE('',*,*,#273,.F.);
#184=ORIENTED_EDGE('',*,*,#266,.F.);
#185=ORIENTED_EDGE('',*,*,#265,.T.);
#186=ORIENTED_EDGE('',*,*,#273,.T.);
#187=ORIENTED_EDGE('',*,*,#271,.T.);
#188=ORIENTED_EDGE('',*,*,#269,.T.);
#189=ORIENTED_EDGE('',*,*,#267,.T.);
#190=ORIENTED_EDGE('',*,*,#274,.F.);
#191=ORIENTED_EDGE('',*,*,#274,.T.);
#192=ORIENTED_EDGE('',*,*,#275,.F.);
#193=ORIENTED_EDGE('',*,*,#276,.F.);
#194=ORIENTED_EDGE('',*,*,#277,.T.);
#195=ORIENTED_EDGE('',*,*,#276,.T.);
#196=ORIENTED_EDGE('',*,*,#275,.T.);
#197=ORIENTED_EDGE('',*,*,#278,.T.);
#198=ORIENTED_EDGE('',*,*,#279,.F.);
#199=ORIENTED_EDGE('',*,*,#280,.T.);
#200=ORIENTED_EDGE('',*,*,#281,.T.);
#201=ORIENTED_EDGE('',*,*,#282,.F.);
#202=ORIENTED_EDGE('',*,*,#283,.F.);
#203=ORIENTED_EDGE('',*,*,#278,.F.);
#204=ORIENTED_EDGE('',*,*,#284,.T.);
#205=ORIENTED_EDGE('',*,*,#285,.T.);
#206=ORIENTED_EDGE('',*,*,#286,.T.);
#207=ORIENTED_EDGE('',*,*,#282,.T.);
#208=ORIENTED_EDGE('',*,*,#287,.T.);
#209=ORIENTED_EDGE('',*,*,#288,.F.);
#210=ORIENTED_EDGE('',*,*,#289,.T.);
#211=ORIENTED_EDGE('',*,*,#288,.T.);
#212=ORIENTED_EDGE('',*,*,#277,.F.);
#213=ORIENTED_EDGE('',*,*,#290,.T.);
#214=ORIENTED_EDGE('',*,*,#291,.F.);
#215=ORIENTED_EDGE('',*,*,#290,.F.);
#216=ORIENTED_EDGE('',*,*,#289,.F.);
#217=ORIENTED_EDGE('',*,*,#291,.T.);
#218=ORIENTED_EDGE('',*,*,#280,.F.);
#219=ORIENTED_EDGE('',*,*,#292,.F.);
#220=ORIENTED_EDGE('',*,*,#293,.F.);
#221=ORIENTED_EDGE('',*,*,#294,.F.);
#222=ORIENTED_EDGE('',*,*,#293,.T.);
#223=ORIENTED_EDGE('',*,*,#295,.F.);
#224=ORIENTED_EDGE('',*,*,#285,.F.);
#225=ORIENTED_EDGE('',*,*,#296,.T.);
#226=ORIENTED_EDGE('',*,*,#281,.F.);
#227=ORIENTED_EDGE('',*,*,#294,.T.);
#228=ORIENTED_EDGE('',*,*,#296,.F.);
#229=ORIENTED_EDGE('',*,*,#287,.F.);
#230=ORIENTED_EDGE('',*,*,#284,.F.);
#231=ORIENTED_EDGE('',*,*,#286,.F.);
#232=ORIENTED_EDGE('',*,*,#295,.T.);
#233=ORIENTED_EDGE('',*,*,#292,.T.);
#234=ORIENTED_EDGE('',*,*,#279,.T.);
#235=ORIENTED_EDGE('',*,*,#283,.T.);
#236=VERTEX_POINT('',#508);
#237=VERTEX_POINT('',#509);
#238=VERTEX_POINT('',#511);
#239=VERTEX_POINT('',#513);
#240=VERTEX_POINT('',#517);
#241=VERTEX_POINT('',#519);
#242=VERTEX_POINT('',#523);
#243=VERTEX_POINT('',#527);
#244=VERTEX_POINT('',#534);
#245=VERTEX_POINT('',#537);
#246=VERTEX_POINT('',#540);
#247=VERTEX_POINT('',#543);
#248=VERTEX_POINT('',#546);
#249=VERTEX_POINT('',#547);
#250=VERTEX_POINT('',#549);
#251=VERTEX_POINT('',#551);
#252=VERTEX_POINT('',#555);
#253=VERTEX_POINT('',#556);
#254=VERTEX_POINT('',#576);
#255=VERTEX_POINT('',#577);
#256=VERTEX_POINT('',#581);
#257=VERTEX_POINT('',#584);
#258=VERTEX_POINT('',#587);
#259=VERTEX_POINT('',#590);
#260=VERTEX_POINT('',#594);
#261=VERTEX_POINT('',#596);
#262=EDGE_CURVE('',#236,#237,#297,.T.);
#263=EDGE_CURVE('',#238,#236,#298,.T.);
#264=EDGE_CURVE('',#239,#238,#299,.T.);
#265=EDGE_CURVE('',#237,#239,#153,.T.);
#266=EDGE_CURVE('',#237,#240,#300,.T.);
#267=EDGE_CURVE('',#241,#240,#301,.T.);
#268=EDGE_CURVE('',#236,#241,#302,.T.);
#269=EDGE_CURVE('',#242,#241,#303,.T.);
#270=EDGE_CURVE('',#238,#242,#304,.T.);
#271=EDGE_CURVE('',#243,#242,#305,.T.);
#272=EDGE_CURVE('',#239,#243,#306,.T.);
#273=EDGE_CURVE('',#240,#243,#154,.T.);
#274=EDGE_CURVE('',#244,#244,#155,.T.);
#275=EDGE_CURVE('',#245,#245,#156,.T.);
#276=EDGE_CURVE('',#246,#246,#157,.T.);
#277=EDGE_CURVE('',#247,#247,#158,.T.);
#278=EDGE_CURVE('',#248,#249,#159,.T.);
#279=EDGE_CURVE('',#250,#249,#307,.T.);
#280=EDGE_CURVE('',#250,#251,#308,.T.);
#281=EDGE_CURVE('',#251,#248,#309,.T.);
#282=EDGE_CURVE('',#252,#253,#160,.T.);
#283=EDGE_CURVE('',#249,#252,#39,.T.);
#284=EDGE_CURVE('',#248,#253,#40,.T.);
#285=EDGE_CURVE('',#254,#255,#41,.T.);
#286=EDGE_CURVE('',#255,#252,#310,.T.);
#287=EDGE_CURVE('',#253,#254,#311,.T.);
#288=EDGE_CURVE('',#256,#256,#161,.T.);
#289=EDGE_CURVE('',#257,#257,#162,.T.);
#290=EDGE_CURVE('',#258,#258,#163,.T.);
#291=EDGE_CURVE('',#259,#259,#164,.T.);
#292=EDGE_CURVE('',#260,#250,#312,.T.);
#293=EDGE_CURVE('',#261,#260,#165,.T.);
#294=EDGE_CURVE('',#251,#261,#313,.T.);
#295=EDGE_CURVE('',#255,#260,#314,.T.);
#296=EDGE_CURVE('',#254,#261,#315,.T.);
#297=LINE('',#507,#316);
#298=LINE('',#510,#317);
#299=LINE('',#512,#318);
#300=LINE('',#516,#319);
#301=LINE('',#518,#320);
#302=LINE('',#520,#321);
#303=LINE('',#522,#322);
#304=LINE('',#524,#323);
#305=LINE('',#526,#324);
#306=LINE('',#528,#325);
#307=LINE('',#548,#326);
#308=LINE('',#550,#327);
#309=LINE('',#552,#328);
#310=LINE('',#578,#329);
#311=LINE('',#579,#330);
#312=LINE('',#593,#331);
#313=LINE('',#597,#332);
#314=LINE('',#599,#333);
#315=LINE('',#600,#334);
#316=VECTOR('',#413,1.);
#317=VECTOR('',#414,1.);
#318=VECTOR('',#415,1.);
#319=VECTOR('',#420,1.);
#320=VECTOR('',#421,1.);
#321=VECTOR('',#422,1.);
#322=VECTOR('',#425,1.);
#323=VECTOR('',#426,1.);
#324=VECTOR('',#429,1.);
#325=VECTOR('',#430,1.);
#326=VECTOR('',#457,1.);
#327=VECTOR('',#458,1.);
#328=VECTOR('',#459,1.);
#329=VECTOR('',#466,1.);
#330=VECTOR('',#467,1.);
#331=VECTOR('',#486,1.);
#332=VECTOR('',#489,1.);
#333=VECTOR('',#492,1.);
#334=VECTOR('',#493,1.);
#335=CURVE_STYLE('',#338,POSITIVE_LENGTH_MEASURE(0.18),#364);
#336=CURVE_STYLE('',#339,POSITIVE_LENGTH_MEASURE(0.18),#364);
#337=CURVE_STYLE('',#340,POSITIVE_LENGTH_MEASURE(0.18),#364);
#338=DRAUGHTING_PRE_DEFINED_CURVE_FONT('continuous');
#339=DRAUGHTING_PRE_DEFINED_CURVE_FONT('continuous');
#340=DRAUGHTING_PRE_DEFINED_CURVE_FONT('continuous');
#341=PRESENTATION_LAYER_ASSIGNMENT('1','Layer 1',(#501,#502,#503,#368,#369,
#370,#68,#69));
#342=STYLED_ITEM('',(#350),#501);
#343=STYLED_ITEM('',(#351),#502);
#344=STYLED_ITEM('',(#352),#503);
#345=STYLED_ITEM('',(#353),#368);
#346=STYLED_ITEM('',(#354),#369);
#347=STYLED_ITEM('',(#355),#370);
#348=STYLED_ITEM('',(#356),#68);
#349=STYLED_ITEM('',(#357),#69);
#350=PRESENTATION_STYLE_ASSIGNMENT((#358));
#351=PRESENTATION_STYLE_ASSIGNMENT((#359));
#352=PRESENTATION_STYLE_ASSIGNMENT((#360));
#353=PRESENTATION_STYLE_ASSIGNMENT((#335));
#354=PRESENTATION_STYLE_ASSIGNMENT((#336));
#355=PRESENTATION_STYLE_ASSIGNMENT((#337));
#356=PRESENTATION_STYLE_ASSIGNMENT((#58));
#357=PRESENTATION_STYLE_ASSIGNMENT((#59));
#358=POINT_STYLE('',#361,POSITIVE_LENGTH_MEASURE(3.),#364);
#359=POINT_STYLE('',#362,POSITIVE_LENGTH_MEASURE(3.),#364);
#360=POINT_STYLE('',#363,POSITIVE_LENGTH_MEASURE(3.),#364);
#361=PRE_DEFINED_POINT_MARKER_SYMBOL('plus');
#362=PRE_DEFINED_POINT_MARKER_SYMBOL('plus');
#363=PRE_DEFINED_POINT_MARKER_SYMBOL('plus');
#364=COLOUR_RGB('Strong Stone',0.576470588235294,0.54508278019379,0.392156862745098);
#365=COLOUR_RGB('Iron Gray',0.298023956664378,0.298023956664378,0.298023956664378);
#366=COLOUR_RGB('Medium Gray',0.490196078431373,0.490196078431373,0.490196078431373);
#367=AXIS2_PLACEMENT_3D('',#500,#405,#406);
#368=AXIS2_PLACEMENT_3D('MCS',#504,#407,#408);
#369=AXIS2_PLACEMENT_3D('PCS',#505,#409,#410);
#370=AXIS2_PLACEMENT_3D('CSW',#506,#411,#412);
#371=AXIS2_PLACEMENT_3D('',#514,#416,#417);
#372=AXIS2_PLACEMENT_3D('',#515,#418,#419);
#373=AXIS2_PLACEMENT_3D('',#521,#423,#424);
#374=AXIS2_PLACEMENT_3D('',#525,#427,#428);
#375=AXIS2_PLACEMENT_3D('',#529,#431,#432);
#376=AXIS2_PLACEMENT_3D('',#530,#433,#434);
#377=AXIS2_PLACEMENT_3D('',#531,#435,#436);
#378=AXIS2_PLACEMENT_3D('',#532,#437,#438);
#379=AXIS2_PLACEMENT_3D('',#533,#439,#440);
#380=AXIS2_PLACEMENT_3D('',#535,#441,#442);
#381=AXIS2_PLACEMENT_3D('',#536,#443,#444);
#382=AXIS2_PLACEMENT_3D('',#538,#445,#446);
#383=AXIS2_PLACEMENT_3D('',#539,#447,#448);
#384=AXIS2_PLACEMENT_3D('',#541,#449,#450);
#385=AXIS2_PLACEMENT_3D('',#542,#451,#452);
#386=AXIS2_PLACEMENT_3D('',#544,#453,#454);
#387=AXIS2_PLACEMENT_3D('',#545,#455,#456);
#388=AXIS2_PLACEMENT_3D('',#553,#460,#461);
#389=AXIS2_PLACEMENT_3D('',#554,#462,#463);
#390=AXIS2_PLACEMENT_3D('',#565,#464,#465);
#391=AXIS2_PLACEMENT_3D('',#580,#468,#469);
#392=AXIS2_PLACEMENT_3D('',#582,#470,#471);
#393=AXIS2_PLACEMENT_3D('',#583,#472,#473);
#394=AXIS2_PLACEMENT_3D('',#585,#474,#475);
#395=AXIS2_PLACEMENT_3D('',#586,#476,#477);
#396=AXIS2_PLACEMENT_3D('',#588,#478,#479);
#397=AXIS2_PLACEMENT_3D('',#589,#480,#481);
#398=AXIS2_PLACEMENT_3D('',#591,#482,#483);
#399=AXIS2_PLACEMENT_3D('',#592,#484,#485);
#400=AXIS2_PLACEMENT_3D('',#595,#487,#488);
#401=AXIS2_PLACEMENT_3D('',#598,#490,#491);
#402=AXIS2_PLACEMENT_3D('',#601,#494,#495);
#403=AXIS2_PLACEMENT_3D('',#602,#496,#497);
#404=AXIS2_PLACEMENT_3D('',#603,#498,#499);
#405=DIRECTION('',(0.,0.,1.));
#406=DIRECTION('',(1.,0.,0.));
#407=DIRECTION('',(0.,0.,1.));
#408=DIRECTION('',(1.,0.,0.));
#409=DIRECTION('',(0.,0.,1.));
#410=DIRECTION('',(1.,0.,0.));
#411=DIRECTION('',(0.,0.,1.));
#412=DIRECTION('',(1.,0.,0.));
#413=DIRECTION('',(0.,-0.000497561211834806,-0.999999876216413));
#414=DIRECTION('',(0.,0.999999876216413,-0.000497561211834806));
#415=DIRECTION('',(0.,0.000497561211834806,0.999999876216413));
#416=DIRECTION('',(-1.,0.,0.));
#417=DIRECTION('',(0.,0.999999876216413,-0.000497561211834727));
#418=DIRECTION('',(-1.,0.,0.));
#419=DIRECTION('',(0.,0.,1.));
#420=DIRECTION('',(-1.,0.,0.));
#421=DIRECTION('',(0.,-0.000497561211834806,-0.999999876216413));
#422=DIRECTION('',(-1.,0.,0.));
#423=DIRECTION('',(0.,0.999999876216413,-0.000497561211834806));
#424=DIRECTION('',(0.,0.000497561211834805,0.999999876216413));
#425=DIRECTION('',(0.,0.999999876216413,-0.000497561211834806));
#426=DIRECTION('',(-1.,0.,0.));
#427=DIRECTION('',(0.,0.000497561211834806,0.999999876216413));
#428=DIRECTION('',(0.,-0.999999876216413,0.000497561211834805));
#429=DIRECTION('',(0.,0.000497561211834806,0.999999876216413));
#430=DIRECTION('',(-1.,0.,0.));
#431=DIRECTION('',(0.,-0.999999876216413,0.000497561211834806));
#432=DIRECTION('',(0.,-0.000497561211834805,-0.999999876216413));
#433=DIRECTION('',(-1.,0.,0.));
#434=DIRECTION('',(0.,0.999999876216413,-0.000497561211834727));
#435=DIRECTION('',(-1.,0.,0.));
#436=DIRECTION('',(0.,0.000497561211834806,0.999999876216413));
#437=DIRECTION('',(-1.,0.,0.));
#438=DIRECTION('',(0.,0.000497561211834806,0.999999876216413));
#439=DIRECTION('',(0.,0.,-1.));
#440=DIRECTION('',(0.,-1.,0.));
#441=DIRECTION('',(0.,0.,-1.));
#442=DIRECTION('',(-1.,0.,0.));
#443=DIRECTION('',(0.,0.,-1.));
#444=DIRECTION('',(0.,1.,0.));
#445=DIRECTION('',(0.,0.,-1.));
#446=DIRECTION('',(-1.,0.,0.));
#447=DIRECTION('',(0.,0.,1.));
#448=DIRECTION('',(1.,0.,0.));
#449=DIRECTION('',(0.,0.,1.));
#450=DIRECTION('',(1.,0.,0.));
#451=DIRECTION('',(0.,0.,-1.));
#452=DIRECTION('',(0.,-1.,0.));
#453=DIRECTION('',(0.,0.,1.));
#454=DIRECTION('',(1.,0.,0.));
#455=DIRECTION('',(0.,0.,1.));
#456=DIRECTION('',(-0.95877734365513,-0.284158415841609,0.));
#457=DIRECTION('',(-1.,0.,0.));
#458=DIRECTION('',(0.,-1.,0.));
#459=DIRECTION('',(-1.,0.,0.));
#460=DIRECTION('',(0.,0.,-1.));
#461=DIRECTION('',(-1.,0.,0.));
#462=DIRECTION('',(0.,0.,-1.));
#463=DIRECTION('',(-0.962021090453116,0.272975129862405,0.));
#464=DIRECTION('',(0.,0.,-1.));
#465=DIRECTION('',(-1.,0.,6.4048804252951E-17));
#466=DIRECTION('',(0.,0.,1.));
#467=DIRECTION('',(0.,0.,-1.));
#468=DIRECTION('',(0.,0.,-1.));
#469=DIRECTION('',(1.,0.,0.));
#470=DIRECTION('',(0.,0.,-1.));
#471=DIRECTION('',(-1.,0.,0.));
#472=DIRECTION('',(0.,0.,1.));
#473=DIRECTION('',(1.,0.,0.));
#474=DIRECTION('',(0.,0.,1.));
#475=DIRECTION('',(1.,0.,7.87481214796644E-18));
#476=DIRECTION('',(0.,0.,-1.));
#477=DIRECTION('',(-1.,0.,0.));
#478=DIRECTION('',(0.,0.,-1.));
#479=DIRECTION('',(-1.,0.,0.));
#480=DIRECTION('',(0.,0.,1.));
#481=DIRECTION('',(-1.,0.,0.));
#482=DIRECTION('',(0.,0.,1.));
#483=DIRECTION('',(1.,0.,0.));
#484=DIRECTION('',(0.,0.,1.));
#485=DIRECTION('',(1.,0.,0.));
#486=DIRECTION('',(0.,0.,1.));
#487=DIRECTION('',(1.,0.,0.));
#488=DIRECTION('',(0.,-1.,0.));
#489=DIRECTION('',(0.,0.,-1.));
#490=DIRECTION('',(-1.,0.,0.));
#491=DIRECTION('',(0.,0.,1.));
#492=DIRECTION('',(1.,0.,-1.1175566465E-10));
#493=DIRECTION('',(1.,0.,-1.081771662465E-10));
#494=DIRECTION('',(-1.,0.,0.));
#495=DIRECTION('',(0.,0.,1.));
#496=DIRECTION('',(0.,-1.,0.));
#497=DIRECTION('',(0.,0.,-1.));
#498=DIRECTION('',(0.,1.,0.));
#499=DIRECTION('',(0.,0.,1.));
#500=CARTESIAN_POINT('',(0.,0.,0.));
#501=CARTESIAN_POINT('',(0.,0.,0.));
#502=CARTESIAN_POINT('',(0.,0.,0.));
#503=CARTESIAN_POINT('',(0.,0.,-100.));
#504=CARTESIAN_POINT('',(0.,0.,0.));
#505=CARTESIAN_POINT('',(0.,0.,0.));
#506=CARTESIAN_POINT('',(0.,0.,-100.));
#507=CARTESIAN_POINT('',(-18.5,8.00947755577216,6.99601715841716));
#508=CARTESIAN_POINT('',(-18.5,8.009975116984,7.99601703463358));
#509=CARTESIAN_POINT('',(-18.5,7.99828242850588,-15.5039800564521));
#510=CARTESIAN_POINT('',(-18.5,-6.99002302626219,8.0034804528111));
#511=CARTESIAN_POINT('',(-18.5,-7.9900229024786,8.00397801402293));
#512=CARTESIAN_POINT('',(-18.5,-8.00171559095672,-15.4960190770628));
#513=CARTESIAN_POINT('',(-18.5,-8.00171559095672,-15.4960190770628));
#514=CARTESIAN_POINT('',(-18.5,-0.00171658122542053,-15.4999995667574));
#515=CARTESIAN_POINT('',(-18.5,-0.00171658122542053,-15.4999995667574));
#516=CARTESIAN_POINT('',(-18.5,7.99828242850588,-15.5039800564521));
#517=CARTESIAN_POINT('',(-30.,7.99828242850588,-15.5039800564521));
#518=CARTESIAN_POINT('',(-30.,8.00947755577216,6.99601715841716));
#519=CARTESIAN_POINT('',(-30.,8.009975116984,7.99601703463358));
#520=CARTESIAN_POINT('',(-18.5,8.009975116984,7.99601703463357));
#521=CARTESIAN_POINT('',(-18.5,8.009975116984,7.99601703463358));
#522=CARTESIAN_POINT('',(-30.,-6.99002302626219,8.0034804528111));
#523=CARTESIAN_POINT('',(-30.,-7.9900229024786,8.00397801402293));
#524=CARTESIAN_POINT('',(-18.5,-7.9900229024786,8.00397801402293));
#525=CARTESIAN_POINT('',(-18.5,-7.9900229024786,8.00397801402293));
#526=CARTESIAN_POINT('',(-30.,-8.00171559095672,-15.4960190770628));
#527=CARTESIAN_POINT('',(-30.,-8.00171559095672,-15.4960190770628));
#528=CARTESIAN_POINT('',(-18.5,-8.00171559095672,-15.4960190770628));
#529=CARTESIAN_POINT('',(-18.5,-8.00171559095672,-15.4960190770628));
#530=CARTESIAN_POINT('',(-30.,-0.00171658122542053,-15.4999995667574));
#531=CARTESIAN_POINT('',(-18.5,-0.00171658122542053,-15.4999995667574));
#532=CARTESIAN_POINT('',(-30.,2.488301600129E-5,-12.));
#533=CARTESIAN_POINT('',(0.,0.,40.));
#534=CARTESIAN_POINT('',(0.,-18.,40.));
#535=CARTESIAN_POINT('',(0.,0.,40.));
#536=CARTESIAN_POINT('',(0.,0.,0.));
#537=CARTESIAN_POINT('',(0.,18.,0.));
#538=CARTESIAN_POINT('',(0.,0.,43.3));
#539=CARTESIAN_POINT('',(0.,0.,-41.95));
#540=CARTESIAN_POINT('',(12.5,0.,-41.95));
#541=CARTESIAN_POINT('',(0.,0.,-41.95));
#542=CARTESIAN_POINT('',(0.,0.,-100.));
#543=CARTESIAN_POINT('',(0.,-12.5,-100.));
#544=CARTESIAN_POINT('',(0.,0.,-102.9025));
#545=CARTESIAN_POINT('',(0.,0.,-6.039613253961E-14));
#546=CARTESIAN_POINT('',(-29.2220789814825,-8.01,0.));
#547=CARTESIAN_POINT('',(-29.2220789814825,8.01,0.));
#548=CARTESIAN_POINT('',(0.,8.01,0.));
#549=CARTESIAN_POINT('',(-18.5,8.01,0.));
#550=CARTESIAN_POINT('',(-18.5,0.,0.));
#551=CARTESIAN_POINT('',(-18.5,-8.01,0.));
#552=CARTESIAN_POINT('',(-18.5,-8.01,0.));
#553=CARTESIAN_POINT('',(0.,0.,0.));
#554=CARTESIAN_POINT('',(0.,0.,-1.2));
#555=CARTESIAN_POINT('',(-30.4645679437605,8.01,-1.20000000000001));
#556=CARTESIAN_POINT('',(-30.4645679437605,-8.01,-1.20000000000001));
#557=CARTESIAN_POINT('',(-29.2220789814825,8.01,-4.44726575682645E-15));
#558=CARTESIAN_POINT('',(-29.636531531171,8.01,-0.399708420497478));
#559=CARTESIAN_POINT('',(-30.0506831061248,8.01,-0.79971991247478));
#560=CARTESIAN_POINT('',(-30.4645679437605,8.01,-1.20000000000001));
#561=CARTESIAN_POINT('',(-29.2220789814825,-8.01,-4.44726575682645E-15));
#562=CARTESIAN_POINT('',(-29.636531531171,-8.01,-0.399708420497478));
#563=CARTESIAN_POINT('',(-30.0506831061248,-8.01,-0.79971991247478));
#564=CARTESIAN_POINT('',(-30.4645679437605,-8.01,-1.20000000000001));
#565=CARTESIAN_POINT('',(0.,0.,-0.6));
#566=CARTESIAN_POINT('',(-30.4645679437605,-8.01,-15.9899999987057));
#567=CARTESIAN_POINT('',(-30.4645679436702,-8.01000000034349,-18.1157569357808));
#568=CARTESIAN_POINT('',(-30.7177482879312,-7.13479992997586,-20.1829945971221));
#569=CARTESIAN_POINT('',(-31.2554306288589,-4.1932667606615,-23.1246399773366));
#570=CARTESIAN_POINT('',(-31.4995202308743,-2.10610538910291,-23.9981132667734));
#571=CARTESIAN_POINT('',(-31.5004781289196,2.0917295080212,-24.0018802829769));
#572=CARTESIAN_POINT('',(-31.2581962631111,4.17747125723198,-23.1391490764607));
#573=CARTESIAN_POINT('',(-30.7158800539493,7.1456848684767,-20.1733941223463));
#574=CARTESIAN_POINT('',(-30.4645679436672,8.01000000035468,-18.1158176309925));
#575=CARTESIAN_POINT('',(-30.4645679437605,8.01,-15.9899999986636));
#576=CARTESIAN_POINT('',(-30.4645679437605,-8.01,-15.9899999993528));
#577=CARTESIAN_POINT('',(-30.4645679437605,8.01,-15.9899999993318));
#578=CARTESIAN_POINT('',(-30.4645679437605,8.01,43.3));
#579=CARTESIAN_POINT('',(-30.4645679437605,-8.01,43.3));
#580=CARTESIAN_POINT('',(0.,0.,-48.558312163513));
#581=CARTESIAN_POINT('',(31.5,0.,-48.558312163513));
#582=CARTESIAN_POINT('',(0.,0.,43.3));
#583=CARTESIAN_POINT('',(0.,0.,-50.001687836487));
#584=CARTESIAN_POINT('',(29.,0.,-50.001687836487));
#585=CARTESIAN_POINT('',(0.,0.,-49.28));
#586=CARTESIAN_POINT('',(0.,0.,-100.));
#587=CARTESIAN_POINT('',(-26.3550952893716,0.,-100.));
#588=CARTESIAN_POINT('',(0.,0.,-100.));
#589=CARTESIAN_POINT('',(0.,0.,-85.));
#590=CARTESIAN_POINT('',(-29.,0.,-85.));
#591=CARTESIAN_POINT('',(0.,0.,-92.0868240914));
#592=CARTESIAN_POINT('',(0.,0.,-104.));
#593=CARTESIAN_POINT('',(-18.5,8.01,-15.99));
#594=CARTESIAN_POINT('',(-18.5,8.01,-15.99));
#595=CARTESIAN_POINT('',(-18.5,0.,-15.99));
#596=CARTESIAN_POINT('',(-18.5,-8.01,-15.99));
#597=CARTESIAN_POINT('',(-18.5,-8.01,-0.6));
#598=CARTESIAN_POINT('',(-18.5,0.,0.));
#599=CARTESIAN_POINT('',(-29.8704758742,8.01,-15.98999999873));
#600=CARTESIAN_POINT('',(-29.8704758742,-8.01,-15.98999999877));
#601=CARTESIAN_POINT('',(-18.5,0.,-15.99));
#602=CARTESIAN_POINT('',(-18.5,-8.01,-15.99));
#603=CARTESIAN_POINT('',(-18.5,8.01,-0.6));
#604=MECHANICAL_DESIGN_GEOMETRIC_PRESENTATION_REPRESENTATION('',(#342,#343,
#344,#345,#346,#347,#348,#349),#605);
#605=(
GEOMETRIC_REPRESENTATION_CONTEXT(3)
GLOBAL_UNCERTAINTY_ASSIGNED_CONTEXT((#606))
GLOBAL_UNIT_ASSIGNED_CONTEXT((#612,#608,#607))
REPRESENTATION_CONTEXT('G6-HC25-100_Basic','TOP_LEVEL_ASSEMBLY_PART')
);
#606=UNCERTAINTY_MEASURE_WITH_UNIT(LENGTH_MEASURE(0.0508),#612,
'DISTANCE_ACCURACY_VALUE','Maximum Tolerance applied to model');
#607=(
NAMED_UNIT(*)
SI_UNIT($,.STERADIAN.)
SOLID_ANGLE_UNIT()
);
#608=(
CONVERSION_BASED_UNIT('DEGREE',#610)
NAMED_UNIT(#609)
PLANE_ANGLE_UNIT()
);
#609=DIMENSIONAL_EXPONENTS(0.,0.,0.,0.,0.,0.,0.);
#610=PLANE_ANGLE_MEASURE_WITH_UNIT(PLANE_ANGLE_MEASURE(0.0174532925),#611);
#611=(
NAMED_UNIT(*)
PLANE_ANGLE_UNIT()
SI_UNIT($,.RADIAN.)
);
#612=(
LENGTH_UNIT()
NAMED_UNIT(*)
SI_UNIT(.MILLI.,.METRE.)
);
ENDSEC;
END-ISO-10303-21;
