ISO-10303-21;
HEADER;
/* Generated by software containing ST-Developer
 * from STEP Tools, Inc. (www.steptools.com) 
 */
/* OPTION: using custom schema-name function */

FILE_DESCRIPTION(
/* description */ (''),
/* implementation_level */ '2;1');

FILE_NAME(
/* name */ 'G5-HC20-090_Basic.stp',
/* time_stamp */ '2022-04-13T13:33:41+05:00',
/* author */ (''),
/* organization */ (''),
/* preprocessor_version */ 'ST-DEVELOPER v16.7',
/* originating_system */ 'SIEMENS PLM Software NX 12.0',
/* authorisation */ '');

FILE_SCHEMA (('AUTOMOTIVE_DESIGN { 1 0 10303 214 3 1 1 1 }'));
ENDSEC;

DATA;
#10=CONSTRUCTIVE_GEOMETRY_REPRESENTATION_RELATIONSHIP(
'supplemental geometry','',#34,#11);
#11=CONSTRUCTIVE_GEOMETRY_REPRESENTATION('supplemental geometry',(#368,
#369,#370),#605);
#12=GEOMETRICALLY_BOUNDED_WIREFRAME_SHAPE_REPRESENTATION(
'inpu8D40A81B6a45-None',(#35),#605);
#13=PROPERTY_DEFINITION_REPRESENTATION(#17,#15);
#14=PROPERTY_DEFINITION_REPRESENTATION(#18,#16);
#15=REPRESENTATION('',(#19),#605);
#16=REPRESENTATION('',(#20),#605);
#17=PROPERTY_DEFINITION('pmi validation property','',#25);
#18=PROPERTY_DEFINITION('pmi validation property','',#25);
#19=VALUE_REPRESENTATION_ITEM('number of annotations',COUNT_MEASURE(0.));
#20=VALUE_REPRESENTATION_ITEM('number of views',COUNT_MEASURE(0.));
#21=SHAPE_REPRESENTATION_RELATIONSHIP('None',
'relationship between inpu8D40A81B6a45-None and inpu8D40A81B6a45-None',
#34,#23);
#22=SHAPE_REPRESENTATION_RELATIONSHIP('None',
'relationship between inpu8D40A81B6a45-None and inpu8D40A81B6a45-None',
#34,#12);
#23=ADVANCED_BREP_SHAPE_REPRESENTATION('inpu8D40A81B6a45-None',(#68,#69),
#605);
#24=SHAPE_DEFINITION_REPRESENTATION(#25,#34);
#25=PRODUCT_DEFINITION_SHAPE('','',#26);
#26=PRODUCT_DEFINITION(' ','',#28,#27);
#27=PRODUCT_DEFINITION_CONTEXT('part definition',#33,'design');
#28=PRODUCT_DEFINITION_FORMATION_WITH_SPECIFIED_SOURCE(' ',' ',#30,
 .NOT_KNOWN.);
#29=PRODUCT_RELATED_PRODUCT_CATEGORY('part','',(#30));
#30=PRODUCT('inpu8D40A81B6a45','inpu8D40A81B6a45',' ',(#31));
#31=PRODUCT_CONTEXT(' ',#33,'mechanical');
#32=APPLICATION_PROTOCOL_DEFINITION('international standard',
'automotive_design',2010,#33);
#33=APPLICATION_CONTEXT(
'core data for automotive mechanical design processes');
#34=SHAPE_REPRESENTATION('inpu8D40A81B6a45-None',(#367),#605);
#35=GEOMETRIC_CURVE_SET('None',(#501,#502,#503));
#36=CONICAL_SURFACE('',#387,23.,60.);
#37=CONICAL_SURFACE('',#391,19.92820323028,15.);
#38=CONICAL_SURFACE('',#404,25.,45.);
#39=B_SPLINE_CURVE_WITH_KNOTS('',3,(#548,#549,#550,#551,#552,#553,#554,
#555,#556,#557),.UNSPECIFIED.,.F.,.F.,(4,2,2,2,4),(0.,0.25,0.5,0.75,1.),
 .UNSPECIFIED.);
#40=B_SPLINE_CURVE_WITH_KNOTS('',3,(#587,#588,#589,#590),.UNSPECIFIED.,
 .F.,.F.,(4,4),(0.,1.),.UNSPECIFIED.);
#41=B_SPLINE_CURVE_WITH_KNOTS('',3,(#598,#599,#600,#601),.UNSPECIFIED.,
 .F.,.F.,(4,4),(0.,1.),.UNSPECIFIED.);
#42=FACE_BOUND('',#131,.T.);
#43=FACE_BOUND('',#132,.T.);
#44=FACE_BOUND('',#133,.T.);
#45=FACE_BOUND('',#134,.T.);
#46=FACE_BOUND('',#135,.T.);
#47=FACE_BOUND('',#136,.T.);
#48=FACE_BOUND('',#137,.T.);
#49=FACE_BOUND('',#138,.T.);
#50=FACE_BOUND('',#139,.T.);
#51=FACE_BOUND('',#140,.T.);
#52=FACE_BOUND('',#141,.T.);
#53=FACE_BOUND('',#142,.T.);
#54=FACE_BOUND('',#143,.T.);
#55=FACE_BOUND('',#144,.T.);
#56=FACE_BOUND('',#149,.T.);
#57=FACE_BOUND('',#150,.T.);
#58=SURFACE_STYLE_USAGE(.BOTH.,#60);
#59=SURFACE_STYLE_USAGE(.BOTH.,#61);
#60=SURFACE_SIDE_STYLE('',(#62));
#61=SURFACE_SIDE_STYLE('',(#63));
#62=SURFACE_STYLE_FILL_AREA(#64);
#63=SURFACE_STYLE_FILL_AREA(#65);
#64=FILL_AREA_STYLE('',(#66));
#65=FILL_AREA_STYLE('',(#67));
#66=FILL_AREA_STYLE_COLOUR('',#365);
#67=FILL_AREA_STYLE_COLOUR('',#366);
#68=MANIFOLD_SOLID_BREP('NOCUT',#70);
#69=MANIFOLD_SOLID_BREP('NOCUT',#71);
#70=CLOSED_SHELL('',(#78,#79,#80,#81,#82,#83));
#71=CLOSED_SHELL('',(#84,#85,#86,#87,#88,#89,#90,#91,#92,#93,#94,#95,#96,
#97,#98));
#72=CYLINDRICAL_SURFACE('',#377,6.);
#73=CYLINDRICAL_SURFACE('',#382,14.);
#74=CYLINDRICAL_SURFACE('',#385,25.);
#75=CYLINDRICAL_SURFACE('',#389,21.);
#76=CYLINDRICAL_SURFACE('',#395,10.);
#77=CYLINDRICAL_SURFACE('',#399,6.01);
#78=ADVANCED_FACE('',(#111),#99,.F.);
#79=ADVANCED_FACE('',(#112),#100,.T.);
#80=ADVANCED_FACE('',(#113),#101,.T.);
#81=ADVANCED_FACE('',(#114),#102,.T.);
#82=ADVANCED_FACE('',(#115),#72,.T.);
#83=ADVANCED_FACE('',(#116),#103,.T.);
#84=ADVANCED_FACE('',(#117),#104,.F.);
#85=ADVANCED_FACE('',(#42,#43),#73,.T.);
#86=ADVANCED_FACE('',(#44,#45),#74,.T.);
#87=ADVANCED_FACE('',(#46,#47),#36,.T.);
#88=ADVANCED_FACE('',(#48,#49),#75,.T.);
#89=ADVANCED_FACE('',(#50,#51),#37,.T.);
#90=ADVANCED_FACE('',(#52,#53),#105,.F.);
#91=ADVANCED_FACE('',(#54,#55),#76,.F.);
#92=ADVANCED_FACE('',(#118),#106,.T.);
#93=ADVANCED_FACE('',(#119),#107,.T.);
#94=ADVANCED_FACE('',(#120),#77,.F.);
#95=ADVANCED_FACE('',(#121),#108,.F.);
#96=ADVANCED_FACE('',(#56,#57),#109,.T.);
#97=ADVANCED_FACE('',(#122),#110,.F.);
#98=ADVANCED_FACE('',(#123),#38,.T.);
#99=PLANE('',#372);
#100=PLANE('',#373);
#101=PLANE('',#374);
#102=PLANE('',#375);
#103=PLANE('',#378);
#104=PLANE('',#380);
#105=PLANE('',#393);
#106=PLANE('',#396);
#107=PLANE('',#398);
#108=PLANE('',#400);
#109=PLANE('',#402);
#110=PLANE('',#403);
#111=FACE_OUTER_BOUND('',#124,.T.);
#112=FACE_OUTER_BOUND('',#125,.T.);
#113=FACE_OUTER_BOUND('',#126,.T.);
#114=FACE_OUTER_BOUND('',#127,.T.);
#115=FACE_OUTER_BOUND('',#128,.T.);
#116=FACE_OUTER_BOUND('',#129,.T.);
#117=FACE_OUTER_BOUND('',#130,.T.);
#118=FACE_OUTER_BOUND('',#145,.T.);
#119=FACE_OUTER_BOUND('',#146,.T.);
#120=FACE_OUTER_BOUND('',#147,.T.);
#121=FACE_OUTER_BOUND('',#148,.T.);
#122=FACE_OUTER_BOUND('',#151,.T.);
#123=FACE_OUTER_BOUND('',#152,.T.);
#124=EDGE_LOOP('',(#166,#167,#168,#169));
#125=EDGE_LOOP('',(#170,#171,#172,#173));
#126=EDGE_LOOP('',(#174,#175,#176,#177));
#127=EDGE_LOOP('',(#178,#179,#180,#181));
#128=EDGE_LOOP('',(#182,#183,#184,#185));
#129=EDGE_LOOP('',(#186,#187,#188,#189));
#130=EDGE_LOOP('',(#190));
#131=EDGE_LOOP('',(#191));
#132=EDGE_LOOP('',(#192));
#133=EDGE_LOOP('',(#193));
#134=EDGE_LOOP('',(#194,#195,#196,#197));
#135=EDGE_LOOP('',(#198));
#136=EDGE_LOOP('',(#199));
#137=EDGE_LOOP('',(#200));
#138=EDGE_LOOP('',(#201));
#139=EDGE_LOOP('',(#202));
#140=EDGE_LOOP('',(#203));
#141=EDGE_LOOP('',(#204));
#142=EDGE_LOOP('',(#205));
#143=EDGE_LOOP('',(#206));
#144=EDGE_LOOP('',(#207));
#145=EDGE_LOOP('',(#208));
#146=EDGE_LOOP('',(#209,#210,#211,#212));
#147=EDGE_LOOP('',(#213,#214,#215,#216));
#148=EDGE_LOOP('',(#217,#218,#219,#220,#221));
#149=EDGE_LOOP('',(#222));
#150=EDGE_LOOP('',(#223,#224,#225,#226));
#151=EDGE_LOOP('',(#227,#228,#229,#230,#231));
#152=EDGE_LOOP('',(#232,#233,#234,#235));
#153=CIRCLE('',#371,6.);
#154=CIRCLE('',#376,6.);
#155=CIRCLE('',#379,14.);
#156=CIRCLE('',#381,14.);
#157=CIRCLE('',#383,25.);
#158=CIRCLE('',#384,25.);
#159=CIRCLE('',#386,21.);
#160=CIRCLE('',#388,21.);
#161=CIRCLE('',#390,18.85640646055);
#162=CIRCLE('',#392,10.);
#163=CIRCLE('',#394,10.);
#164=CIRCLE('',#397,6.01);
#165=CIRCLE('',#401,24.);
#166=ORIENTED_EDGE('',*,*,#262,.F.);
#167=ORIENTED_EDGE('',*,*,#263,.F.);
#168=ORIENTED_EDGE('',*,*,#264,.F.);
#169=ORIENTED_EDGE('',*,*,#265,.F.);
#170=ORIENTED_EDGE('',*,*,#266,.T.);
#171=ORIENTED_EDGE('',*,*,#267,.F.);
#172=ORIENTED_EDGE('',*,*,#268,.F.);
#173=ORIENTED_EDGE('',*,*,#262,.T.);
#174=ORIENTED_EDGE('',*,*,#263,.T.);
#175=ORIENTED_EDGE('',*,*,#268,.T.);
#176=ORIENTED_EDGE('',*,*,#269,.F.);
#177=ORIENTED_EDGE('',*,*,#270,.F.);
#178=ORIENTED_EDGE('',*,*,#264,.T.);
#179=ORIENTED_EDGE('',*,*,#270,.T.);
#180=ORIENTED_EDGE('',*,*,#271,.F.);
#181=ORIENTED_EDGE('',*,*,#272,.F.);
#182=ORIENTED_EDGE('',*,*,#272,.T.);
#183=ORIENTED_EDGE('',*,*,#273,.F.);
#184=ORIENTED_EDGE('',*,*,#266,.F.);
#185=ORIENTED_EDGE('',*,*,#265,.T.);
#186=ORIENTED_EDGE('',*,*,#273,.T.);
#187=ORIENTED_EDGE('',*,*,#271,.T.);
#188=ORIENTED_EDGE('',*,*,#269,.T.);
#189=ORIENTED_EDGE('',*,*,#267,.T.);
#190=ORIENTED_EDGE('',*,*,#274,.F.);
#191=ORIENTED_EDGE('',*,*,#275,.F.);
#192=ORIENTED_EDGE('',*,*,#274,.T.);
#193=ORIENTED_EDGE('',*,*,#276,.T.);
#194=ORIENTED_EDGE('',*,*,#277,.F.);
#195=ORIENTED_EDGE('',*,*,#278,.T.);
#196=ORIENTED_EDGE('',*,*,#279,.F.);
#197=ORIENTED_EDGE('',*,*,#280,.F.);
#198=ORIENTED_EDGE('',*,*,#276,.F.);
#199=ORIENTED_EDGE('',*,*,#281,.F.);
#200=ORIENTED_EDGE('',*,*,#282,.F.);
#201=ORIENTED_EDGE('',*,*,#281,.T.);
#202=ORIENTED_EDGE('',*,*,#283,.T.);
#203=ORIENTED_EDGE('',*,*,#282,.T.);
#204=ORIENTED_EDGE('',*,*,#283,.F.);
#205=ORIENTED_EDGE('',*,*,#284,.F.);
#206=ORIENTED_EDGE('',*,*,#284,.T.);
#207=ORIENTED_EDGE('',*,*,#285,.F.);
#208=ORIENTED_EDGE('',*,*,#285,.T.);
#209=ORIENTED_EDGE('',*,*,#286,.F.);
#210=ORIENTED_EDGE('',*,*,#287,.T.);
#211=ORIENTED_EDGE('',*,*,#288,.F.);
#212=ORIENTED_EDGE('',*,*,#289,.F.);
#213=ORIENTED_EDGE('',*,*,#290,.F.);
#214=ORIENTED_EDGE('',*,*,#280,.T.);
#215=ORIENTED_EDGE('',*,*,#291,.T.);
#216=ORIENTED_EDGE('',*,*,#289,.T.);
#217=ORIENTED_EDGE('',*,*,#279,.T.);
#218=ORIENTED_EDGE('',*,*,#292,.T.);
#219=ORIENTED_EDGE('',*,*,#293,.F.);
#220=ORIENTED_EDGE('',*,*,#286,.T.);
#221=ORIENTED_EDGE('',*,*,#291,.F.);
#222=ORIENTED_EDGE('',*,*,#275,.T.);
#223=ORIENTED_EDGE('',*,*,#293,.T.);
#224=ORIENTED_EDGE('',*,*,#294,.T.);
#225=ORIENTED_EDGE('',*,*,#295,.T.);
#226=ORIENTED_EDGE('',*,*,#287,.F.);
#227=ORIENTED_EDGE('',*,*,#295,.F.);
#228=ORIENTED_EDGE('',*,*,#296,.T.);
#229=ORIENTED_EDGE('',*,*,#277,.T.);
#230=ORIENTED_EDGE('',*,*,#290,.T.);
#231=ORIENTED_EDGE('',*,*,#288,.T.);
#232=ORIENTED_EDGE('',*,*,#296,.F.);
#233=ORIENTED_EDGE('',*,*,#294,.F.);
#234=ORIENTED_EDGE('',*,*,#292,.F.);
#235=ORIENTED_EDGE('',*,*,#278,.F.);
#236=VERTEX_POINT('',#508);
#237=VERTEX_POINT('',#509);
#238=VERTEX_POINT('',#511);
#239=VERTEX_POINT('',#513);
#240=VERTEX_POINT('',#517);
#241=VERTEX_POINT('',#519);
#242=VERTEX_POINT('',#523);
#243=VERTEX_POINT('',#527);
#244=VERTEX_POINT('',#534);
#245=VERTEX_POINT('',#537);
#246=VERTEX_POINT('',#540);
#247=VERTEX_POINT('',#542);
#248=VERTEX_POINT('',#543);
#249=VERTEX_POINT('',#545);
#250=VERTEX_POINT('',#547);
#251=VERTEX_POINT('',#560);
#252=VERTEX_POINT('',#563);
#253=VERTEX_POINT('',#566);
#254=VERTEX_POINT('',#569);
#255=VERTEX_POINT('',#572);
#256=VERTEX_POINT('',#576);
#257=VERTEX_POINT('',#577);
#258=VERTEX_POINT('',#579);
#259=VERTEX_POINT('',#581);
#260=VERTEX_POINT('',#591);
#261=VERTEX_POINT('',#595);
#262=EDGE_CURVE('',#236,#237,#297,.T.);
#263=EDGE_CURVE('',#238,#236,#298,.T.);
#264=EDGE_CURVE('',#239,#238,#299,.T.);
#265=EDGE_CURVE('',#237,#239,#153,.T.);
#266=EDGE_CURVE('',#237,#240,#300,.T.);
#267=EDGE_CURVE('',#241,#240,#301,.T.);
#268=EDGE_CURVE('',#236,#241,#302,.T.);
#269=EDGE_CURVE('',#242,#241,#303,.T.);
#270=EDGE_CURVE('',#238,#242,#304,.T.);
#271=EDGE_CURVE('',#243,#242,#305,.T.);
#272=EDGE_CURVE('',#239,#243,#306,.T.);
#273=EDGE_CURVE('',#240,#243,#154,.T.);
#274=EDGE_CURVE('',#244,#244,#155,.T.);
#275=EDGE_CURVE('',#245,#245,#156,.T.);
#276=EDGE_CURVE('',#246,#246,#157,.T.);
#277=EDGE_CURVE('',#247,#248,#307,.T.);
#278=EDGE_CURVE('',#247,#249,#158,.T.);
#279=EDGE_CURVE('',#250,#249,#308,.T.);
#280=EDGE_CURVE('',#248,#250,#39,.T.);
#281=EDGE_CURVE('',#251,#251,#159,.T.);
#282=EDGE_CURVE('',#252,#252,#160,.T.);
#283=EDGE_CURVE('',#253,#253,#161,.T.);
#284=EDGE_CURVE('',#254,#254,#162,.T.);
#285=EDGE_CURVE('',#255,#255,#163,.T.);
#286=EDGE_CURVE('',#256,#257,#309,.T.);
#287=EDGE_CURVE('',#256,#258,#310,.T.);
#288=EDGE_CURVE('',#259,#258,#311,.T.);
#289=EDGE_CURVE('',#257,#259,#164,.T.);
#290=EDGE_CURVE('',#248,#259,#312,.T.);
#291=EDGE_CURVE('',#250,#257,#313,.T.);
#292=EDGE_CURVE('',#249,#260,#40,.T.);
#293=EDGE_CURVE('',#256,#260,#314,.T.);
#294=EDGE_CURVE('',#260,#261,#165,.T.);
#295=EDGE_CURVE('',#261,#258,#315,.T.);
#296=EDGE_CURVE('',#261,#247,#41,.T.);
#297=LINE('',#507,#316);
#298=LINE('',#510,#317);
#299=LINE('',#512,#318);
#300=LINE('',#516,#319);
#301=LINE('',#518,#320);
#302=LINE('',#520,#321);
#303=LINE('',#522,#322);
#304=LINE('',#524,#323);
#305=LINE('',#526,#324);
#306=LINE('',#528,#325);
#307=LINE('',#541,#326);
#308=LINE('',#546,#327);
#309=LINE('',#575,#328);
#310=LINE('',#578,#329);
#311=LINE('',#580,#330);
#312=LINE('',#584,#331);
#313=LINE('',#585,#332);
#314=LINE('',#592,#333);
#315=LINE('',#596,#334);
#316=VECTOR('',#413,1.);
#317=VECTOR('',#414,1.);
#318=VECTOR('',#415,1.);
#319=VECTOR('',#420,1.);
#320=VECTOR('',#421,1.);
#321=VECTOR('',#422,1.);
#322=VECTOR('',#425,1.);
#323=VECTOR('',#426,1.);
#324=VECTOR('',#429,1.);
#325=VECTOR('',#430,1.);
#326=VECTOR('',#449,1.);
#327=VECTOR('',#452,1.);
#328=VECTOR('',#477,1.);
#329=VECTOR('',#478,1.);
#330=VECTOR('',#479,1.);
#331=VECTOR('',#484,1.);
#332=VECTOR('',#485,1.);
#333=VECTOR('',#488,1.);
#334=VECTOR('',#493,1.);
#335=CURVE_STYLE('',#338,POSITIVE_LENGTH_MEASURE(0.18),#364);
#336=CURVE_STYLE('',#339,POSITIVE_LENGTH_MEASURE(0.18),#364);
#337=CURVE_STYLE('',#340,POSITIVE_LENGTH_MEASURE(0.18),#364);
#338=DRAUGHTING_PRE_DEFINED_CURVE_FONT('continuous');
#339=DRAUGHTING_PRE_DEFINED_CURVE_FONT('continuous');
#340=DRAUGHTING_PRE_DEFINED_CURVE_FONT('continuous');
#341=PRESENTATION_LAYER_ASSIGNMENT('1','Layer 1',(#501,#502,#503,#368,#369,
#370,#68,#69));
#342=STYLED_ITEM('',(#350),#501);
#343=STYLED_ITEM('',(#351),#502);
#344=STYLED_ITEM('',(#352),#503);
#345=STYLED_ITEM('',(#353),#368);
#346=STYLED_ITEM('',(#354),#369);
#347=STYLED_ITEM('',(#355),#370);
#348=STYLED_ITEM('',(#356),#68);
#349=STYLED_ITEM('',(#357),#69);
#350=PRESENTATION_STYLE_ASSIGNMENT((#358));
#351=PRESENTATION_STYLE_ASSIGNMENT((#359));
#352=PRESENTATION_STYLE_ASSIGNMENT((#360));
#353=PRESENTATION_STYLE_ASSIGNMENT((#335));
#354=PRESENTATION_STYLE_ASSIGNMENT((#336));
#355=PRESENTATION_STYLE_ASSIGNMENT((#337));
#356=PRESENTATION_STYLE_ASSIGNMENT((#58));
#357=PRESENTATION_STYLE_ASSIGNMENT((#59));
#358=POINT_STYLE('',#361,POSITIVE_LENGTH_MEASURE(3.),#364);
#359=POINT_STYLE('',#362,POSITIVE_LENGTH_MEASURE(3.),#364);
#360=POINT_STYLE('',#363,POSITIVE_LENGTH_MEASURE(3.),#364);
#361=PRE_DEFINED_POINT_MARKER_SYMBOL('plus');
#362=PRE_DEFINED_POINT_MARKER_SYMBOL('plus');
#363=PRE_DEFINED_POINT_MARKER_SYMBOL('plus');
#364=COLOUR_RGB('Strong Stone',0.576470588235294,0.54508278019379,0.392156862745098);
#365=COLOUR_RGB('Iron Gray',0.298023956664378,0.298023956664378,0.298023956664378);
#366=COLOUR_RGB('Medium Gray',0.490196078431373,0.490196078431373,0.490196078431373);
#367=AXIS2_PLACEMENT_3D('',#500,#405,#406);
#368=AXIS2_PLACEMENT_3D('PCS',#504,#407,#408);
#369=AXIS2_PLACEMENT_3D('MCS',#505,#409,#410);
#370=AXIS2_PLACEMENT_3D('CSW',#506,#411,#412);
#371=AXIS2_PLACEMENT_3D('',#514,#416,#417);
#372=AXIS2_PLACEMENT_3D('',#515,#418,#419);
#373=AXIS2_PLACEMENT_3D('',#521,#423,#424);
#374=AXIS2_PLACEMENT_3D('',#525,#427,#428);
#375=AXIS2_PLACEMENT_3D('',#529,#431,#432);
#376=AXIS2_PLACEMENT_3D('',#530,#433,#434);
#377=AXIS2_PLACEMENT_3D('',#531,#435,#436);
#378=AXIS2_PLACEMENT_3D('',#532,#437,#438);
#379=AXIS2_PLACEMENT_3D('',#533,#439,#440);
#380=AXIS2_PLACEMENT_3D('',#535,#441,#442);
#381=AXIS2_PLACEMENT_3D('',#536,#443,#444);
#382=AXIS2_PLACEMENT_3D('',#538,#445,#446);
#383=AXIS2_PLACEMENT_3D('',#539,#447,#448);
#384=AXIS2_PLACEMENT_3D('',#544,#450,#451);
#385=AXIS2_PLACEMENT_3D('',#558,#453,#454);
#386=AXIS2_PLACEMENT_3D('',#559,#455,#456);
#387=AXIS2_PLACEMENT_3D('',#561,#457,#458);
#388=AXIS2_PLACEMENT_3D('',#562,#459,#460);
#389=AXIS2_PLACEMENT_3D('',#564,#461,#462);
#390=AXIS2_PLACEMENT_3D('',#565,#463,#464);
#391=AXIS2_PLACEMENT_3D('',#567,#465,#466);
#392=AXIS2_PLACEMENT_3D('',#568,#467,#468);
#393=AXIS2_PLACEMENT_3D('',#570,#469,#470);
#394=AXIS2_PLACEMENT_3D('',#571,#471,#472);
#395=AXIS2_PLACEMENT_3D('',#573,#473,#474);
#396=AXIS2_PLACEMENT_3D('',#574,#475,#476);
#397=AXIS2_PLACEMENT_3D('',#582,#480,#481);
#398=AXIS2_PLACEMENT_3D('',#583,#482,#483);
#399=AXIS2_PLACEMENT_3D('',#586,#486,#487);
#400=AXIS2_PLACEMENT_3D('',#593,#489,#490);
#401=AXIS2_PLACEMENT_3D('',#594,#491,#492);
#402=AXIS2_PLACEMENT_3D('',#597,#494,#495);
#403=AXIS2_PLACEMENT_3D('',#602,#496,#497);
#404=AXIS2_PLACEMENT_3D('',#603,#498,#499);
#405=DIRECTION('',(0.,0.,1.));
#406=DIRECTION('',(1.,0.,0.));
#407=DIRECTION('',(0.,0.,1.));
#408=DIRECTION('',(1.,0.,0.));
#409=DIRECTION('',(0.,0.,1.));
#410=DIRECTION('',(1.,0.,0.));
#411=DIRECTION('',(0.,0.,1.));
#412=DIRECTION('',(1.,0.,0.));
#413=DIRECTION('',(0.,0.,-1.));
#414=DIRECTION('',(0.,1.,0.));
#415=DIRECTION('',(0.,0.,1.));
#416=DIRECTION('',(-1.,0.,0.));
#417=DIRECTION('',(0.,1.,0.));
#418=DIRECTION('',(-1.,0.,0.));
#419=DIRECTION('',(0.,0.,-1.));
#420=DIRECTION('',(-1.,0.,0.));
#421=DIRECTION('',(0.,0.,-1.));
#422=DIRECTION('',(-1.,0.,0.));
#423=DIRECTION('',(0.,1.,0.));
#424=DIRECTION('',(0.,0.,-1.));
#425=DIRECTION('',(0.,1.,0.));
#426=DIRECTION('',(-1.,0.,0.));
#427=DIRECTION('',(0.,0.,1.));
#428=DIRECTION('',(0.,1.,0.));
#429=DIRECTION('',(0.,0.,1.));
#430=DIRECTION('',(-1.,0.,0.));
#431=DIRECTION('',(0.,-1.,0.));
#432=DIRECTION('',(0.,0.,1.));
#433=DIRECTION('',(-1.,0.,0.));
#434=DIRECTION('',(0.,1.,0.));
#435=DIRECTION('',(-1.,0.,0.));
#436=DIRECTION('',(0.,0.,-1.));
#437=DIRECTION('',(-1.,0.,0.));
#438=DIRECTION('',(0.,0.,-1.));
#439=DIRECTION('',(0.,0.,-1.));
#440=DIRECTION('',(-1.,0.,0.));
#441=DIRECTION('',(0.,0.,-1.));
#442=DIRECTION('',(1.,0.,0.));
#443=DIRECTION('',(0.,0.,-1.));
#444=DIRECTION('',(0.,1.,0.));
#445=DIRECTION('',(0.,0.,-1.));
#446=DIRECTION('',(1.,0.,0.));
#447=DIRECTION('',(0.,0.,1.));
#448=DIRECTION('',(0.,-1.,0.));
#449=DIRECTION('',(0.,0.,-1.));
#450=DIRECTION('',(0.,0.,-1.));
#451=DIRECTION('',(1.,0.,0.));
#452=DIRECTION('',(0.,0.,1.));
#453=DIRECTION('',(0.,0.,1.));
#454=DIRECTION('',(0.,1.,0.));
#455=DIRECTION('',(0.,0.,-1.));
#456=DIRECTION('',(0.,1.,0.));
#457=DIRECTION('',(0.,0.,1.));
#458=DIRECTION('',(0.,1.,1.97683562036563E-17));
#459=DIRECTION('',(0.,0.,-1.));
#460=DIRECTION('',(0.,1.,0.));
#461=DIRECTION('',(0.,0.,1.));
#462=DIRECTION('',(0.,1.,0.));
#463=DIRECTION('',(0.,0.,1.));
#464=DIRECTION('',(0.,-1.,0.));
#465=DIRECTION('',(0.,0.,1.));
#466=DIRECTION('',(0.,1.,1.44621856564285E-16));
#467=DIRECTION('',(0.,0.,-1.));
#468=DIRECTION('',(-1.,0.,0.));
#469=DIRECTION('',(0.,0.,1.));
#470=DIRECTION('',(0.,1.,0.));
#471=DIRECTION('',(0.,0.,-1.));
#472=DIRECTION('',(-1.,0.,0.));
#473=DIRECTION('',(0.,0.,-1.));
#474=DIRECTION('',(-1.,0.,0.));
#475=DIRECTION('',(0.,0.,-1.));
#476=DIRECTION('',(0.,1.,0.));
#477=DIRECTION('',(0.,0.,-1.));
#478=DIRECTION('',(0.,1.,0.));
#479=DIRECTION('',(0.,0.,1.));
#480=DIRECTION('',(1.,0.,0.));
#481=DIRECTION('',(0.,-1.,0.));
#482=DIRECTION('',(-1.,0.,0.));
#483=DIRECTION('',(0.,0.,-1.));
#484=DIRECTION('',(1.,0.,-1.002197266075E-10));
#485=DIRECTION('',(1.,0.,-1.057901926452E-10));
#486=DIRECTION('',(-1.,0.,0.));
#487=DIRECTION('',(0.,0.,-1.));
#488=DIRECTION('',(-1.,0.,0.));
#489=DIRECTION('',(0.,-1.,0.));
#490=DIRECTION('',(0.,0.,1.));
#491=DIRECTION('',(0.,0.,1.));
#492=DIRECTION('',(1.,0.,0.));
#493=DIRECTION('',(1.,0.,0.));
#494=DIRECTION('',(0.,0.,1.));
#495=DIRECTION('',(0.,-1.,0.));
#496=DIRECTION('',(0.,1.,0.));
#497=DIRECTION('',(0.,0.,-1.));
#498=DIRECTION('',(0.,0.,-1.));
#499=DIRECTION('',(1.,0.,1.07468234853197E-16));
#500=CARTESIAN_POINT('',(0.,0.,0.));
#501=CARTESIAN_POINT('',(0.,0.,0.));
#502=CARTESIAN_POINT('',(0.,0.,0.));
#503=CARTESIAN_POINT('',(0.,0.,-90.));
#504=CARTESIAN_POINT('',(0.,0.,0.));
#505=CARTESIAN_POINT('',(0.,0.,0.));
#506=CARTESIAN_POINT('',(0.,0.,-90.));
#507=CARTESIAN_POINT('',(-14.5,6.,5.5));
#508=CARTESIAN_POINT('',(-14.5,6.,6.3));
#509=CARTESIAN_POINT('',(-14.5,6.,-11.5));
#510=CARTESIAN_POINT('',(-14.5,-5.2,6.3));
#511=CARTESIAN_POINT('',(-14.5,-6.,6.3));
#512=CARTESIAN_POINT('',(-14.5,-6.,-11.5));
#513=CARTESIAN_POINT('',(-14.5,-6.,-11.5));
#514=CARTESIAN_POINT('',(-14.5,0.,-11.5));
#515=CARTESIAN_POINT('',(-14.5,0.,-9.));
#516=CARTESIAN_POINT('',(-14.5,6.,-11.5));
#517=CARTESIAN_POINT('',(-23.5,6.,-11.5));
#518=CARTESIAN_POINT('',(-23.5,6.,5.5));
#519=CARTESIAN_POINT('',(-23.5,6.,6.3));
#520=CARTESIAN_POINT('',(-14.5,6.,6.3));
#521=CARTESIAN_POINT('',(-14.5,6.,6.3));
#522=CARTESIAN_POINT('',(-23.5,-5.2,6.3));
#523=CARTESIAN_POINT('',(-23.5,-6.,6.3));
#524=CARTESIAN_POINT('',(-14.5,-6.,6.3));
#525=CARTESIAN_POINT('',(-14.5,-6.,6.3));
#526=CARTESIAN_POINT('',(-23.5,-6.,-11.5));
#527=CARTESIAN_POINT('',(-23.5,-6.,-11.5));
#528=CARTESIAN_POINT('',(-14.5,-6.,-11.5));
#529=CARTESIAN_POINT('',(-14.5,-6.,-11.5));
#530=CARTESIAN_POINT('',(-23.5,0.,-11.5));
#531=CARTESIAN_POINT('',(-14.5,0.,-11.5));
#532=CARTESIAN_POINT('',(-23.5,0.,-9.));
#533=CARTESIAN_POINT('',(0.,0.,30.));
#534=CARTESIAN_POINT('',(-14.,0.,30.));
#535=CARTESIAN_POINT('',(0.,0.,30.));
#536=CARTESIAN_POINT('',(0.,0.,0.));
#537=CARTESIAN_POINT('',(0.,14.,0.));
#538=CARTESIAN_POINT('',(0.,0.,32.5));
#539=CARTESIAN_POINT('',(0.,0.,-40.69059892324));
#540=CARTESIAN_POINT('',(0.,-25.,-40.69059892324));
#541=CARTESIAN_POINT('',(-24.2668477557346,6.01,32.5));
#542=CARTESIAN_POINT('',(-24.2668477557346,6.01,-1.00000000000002));
#543=CARTESIAN_POINT('',(-24.2668477557346,6.01,-11.9899999995102));
#544=CARTESIAN_POINT('',(0.,0.,-1.));
#545=CARTESIAN_POINT('',(-24.2668477557346,-6.01,-1.00000000000002));
#546=CARTESIAN_POINT('',(-24.2668477557346,-6.01,32.5));
#547=CARTESIAN_POINT('',(-24.2668477557346,-6.01,-11.9899999994838));
#548=CARTESIAN_POINT('',(-24.2668477557346,6.01,-11.9899999990204));
#549=CARTESIAN_POINT('',(-24.2668477556702,6.01000000025985,-13.5842245490342));
#550=CARTESIAN_POINT('',(-24.4456863209546,5.35385179573001,-15.1355503759719));
#551=CARTESIAN_POINT('',(-24.8266020763065,3.14565384266625,-17.3437910045628));
#552=CARTESIAN_POINT('',(-24.9996689824481,1.57928462111295,-17.9986230546141));
#553=CARTESIAN_POINT('',(-25.000329915592,-1.56878719334858,-18.0013723615252));
#554=CARTESIAN_POINT('',(-24.828665885426,-3.13316992561512,-17.3552661188228));
#555=CARTESIAN_POINT('',(-24.4442858339668,-5.36248948718993,-15.1279198218477));
#556=CARTESIAN_POINT('',(-24.2668477556765,-6.01000000023442,-13.5842580969759));
#557=CARTESIAN_POINT('',(-24.2668477557346,-6.01,-11.9899999991163));
#558=CARTESIAN_POINT('',(0.,0.,-93.5));
#559=CARTESIAN_POINT('',(0.,0.,-43.));
#560=CARTESIAN_POINT('',(0.,21.,-43.));
#561=CARTESIAN_POINT('',(0.,0.,-41.84529946162));
#562=CARTESIAN_POINT('',(0.,0.,-82.));
#563=CARTESIAN_POINT('',(0.,21.,-82.));
#564=CARTESIAN_POINT('',(0.,0.,-92.4943375673));
#565=CARTESIAN_POINT('',(0.,0.,-90.));
#566=CARTESIAN_POINT('',(0.,-18.85640646055,-90.));
#567=CARTESIAN_POINT('',(0.,0.,-86.));
#568=CARTESIAN_POINT('',(0.,0.,-90.));
#569=CARTESIAN_POINT('',(-10.,0.,-90.));
#570=CARTESIAN_POINT('',(0.,0.,-90.));
#571=CARTESIAN_POINT('',(0.,0.,-38.));
#572=CARTESIAN_POINT('',(-10.,0.,-38.));
#573=CARTESIAN_POINT('',(0.,0.,-90.));
#574=CARTESIAN_POINT('',(0.,0.,-38.));
#575=CARTESIAN_POINT('',(-14.5,-6.01,-0.5));
#576=CARTESIAN_POINT('',(-14.5,-6.01,0.));
#577=CARTESIAN_POINT('',(-14.5,-6.01,-11.99));
#578=CARTESIAN_POINT('',(-14.5,0.,0.));
#579=CARTESIAN_POINT('',(-14.5,6.01,0.));
#580=CARTESIAN_POINT('',(-14.5,6.01,-11.99));
#581=CARTESIAN_POINT('',(-14.5,6.01,-11.99));
#582=CARTESIAN_POINT('',(-14.5,0.,-11.99));
#583=CARTESIAN_POINT('',(-14.5,0.,0.));
#584=CARTESIAN_POINT('',(-23.77199826961,6.01,-11.98999999907));
#585=CARTESIAN_POINT('',(-23.77199826961,-6.01,-11.98999999902));
#586=CARTESIAN_POINT('',(-14.5,0.,-11.99));
#587=CARTESIAN_POINT('',(-24.2668477557346,-6.01,-1.00000000000002));
#588=CARTESIAN_POINT('',(-23.9232171305545,-6.01,-0.666446717381931));
#589=CARTESIAN_POINT('',(-23.5793821649124,-6.01,-0.333103783556299));
#590=CARTESIAN_POINT('',(-23.2353157929906,-6.01,0.));
#591=CARTESIAN_POINT('',(-23.2353157929906,-6.01,0.));
#592=CARTESIAN_POINT('',(0.,-6.01,0.));
#593=CARTESIAN_POINT('',(-14.5,-6.01,-11.99));
#594=CARTESIAN_POINT('',(0.,0.,0.));
#595=CARTESIAN_POINT('',(-23.2353157929906,6.01,0.));
#596=CARTESIAN_POINT('',(0.,6.01,0.));
#597=CARTESIAN_POINT('',(0.,0.,0.));
#598=CARTESIAN_POINT('',(-23.2353157929906,6.01,0.));
#599=CARTESIAN_POINT('',(-23.5793821649124,6.01,-0.333103783556291));
#600=CARTESIAN_POINT('',(-23.9232171305545,6.01,-0.666446717381917));
#601=CARTESIAN_POINT('',(-24.2668477557346,6.01,-1.));
#602=CARTESIAN_POINT('',(-14.5,6.01,-0.5));
#603=CARTESIAN_POINT('',(0.,0.,-1.));
#604=MECHANICAL_DESIGN_GEOMETRIC_PRESENTATION_REPRESENTATION('',(#342,#343,
#344,#345,#346,#347,#348,#349),#605);
#605=(
GEOMETRIC_REPRESENTATION_CONTEXT(3)
GLOBAL_UNCERTAINTY_ASSIGNED_CONTEXT((#606))
GLOBAL_UNIT_ASSIGNED_CONTEXT((#612,#608,#607))
REPRESENTATION_CONTEXT('G5-HC20-090_Basic','TOP_LEVEL_ASSEMBLY_PART')
);
#606=UNCERTAINTY_MEASURE_WITH_UNIT(LENGTH_MEASURE(0.0508),#612,
'DISTANCE_ACCURACY_VALUE','Maximum Tolerance applied to model');
#607=(
NAMED_UNIT(*)
SI_UNIT($,.STERADIAN.)
SOLID_ANGLE_UNIT()
);
#608=(
CONVERSION_BASED_UNIT('DEGREE',#610)
NAMED_UNIT(#609)
PLANE_ANGLE_UNIT()
);
#609=DIMENSIONAL_EXPONENTS(0.,0.,0.,0.,0.,0.,0.);
#610=PLANE_ANGLE_MEASURE_WITH_UNIT(PLANE_ANGLE_MEASURE(0.0174532925),#611);
#611=(
NAMED_UNIT(*)
PLANE_ANGLE_UNIT()
SI_UNIT($,.RADIAN.)
);
#612=(
LENGTH_UNIT()
NAMED_UNIT(*)
SI_UNIT(.MILLI.,.METRE.)
);
ENDSEC;
END-ISO-10303-21;
