ISO-10303-21;
HEADER;
/* Generated by software containing ST-Developer
 * from STEP Tools, Inc. (www.steptools.com) 
 */
/* OPTION: using custom schema-name function */

FILE_DESCRIPTION(
/* description */ (''),
/* implementation_level */ '2;1');

FILE_NAME(
/* name */ 'ACS540R.375D2R060.0Z5_Basic.stp',
/* time_stamp */ '2022-04-04T17:18:47+06:00',
/* author */ (''),
/* organization */ (''),
/* preprocessor_version */ 'ST-DEVELOPER v16.7',
/* originating_system */ 'SIEMENS PLM Software NX 12.0',
/* authorisation */ '');

FILE_SCHEMA (('AUTOMOTIVE_DESIGN { 1 0 10303 214 3 1 1 1 }'));
ENDSEC;

DATA;
#10=CONSTRUCTIVE_GEOMETRY_REPRESENTATION_RELATIONSHIP(
'supplemental geometry','',#34,#11);
#11=CONSTRUCTIVE_GEOMETRY_REPRESENTATION('supplemental geometry',(#200,
#201,#202),#321);
#12=GEOMETRICALLY_BOUNDED_WIREFRAME_SHAPE_REPRESENTATION(
'ACS540R.375D2R060.0Z5_Basic-None',(#35),#321);
#13=PROPERTY_DEFINITION_REPRESENTATION(#17,#15);
#14=PROPERTY_DEFINITION_REPRESENTATION(#18,#16);
#15=REPRESENTATION('',(#19),#321);
#16=REPRESENTATION('',(#20),#321);
#17=PROPERTY_DEFINITION('pmi validation property','',#25);
#18=PROPERTY_DEFINITION('pmi validation property','',#25);
#19=VALUE_REPRESENTATION_ITEM('number of annotations',COUNT_MEASURE(0.));
#20=VALUE_REPRESENTATION_ITEM('number of views',COUNT_MEASURE(0.));
#21=SHAPE_REPRESENTATION_RELATIONSHIP('None',
'relationship between ACS540R.375D2R060.0Z5_Basic-None and ACS540R.375
D2R060.0Z5_Basic-None',#34,#23);
#22=SHAPE_REPRESENTATION_RELATIONSHIP('None',
'relationship between ACS540R.375D2R060.0Z5_Basic-None and ACS540R.375
D2R060.0Z5_Basic-None',#34,#12);
#23=ADVANCED_BREP_SHAPE_REPRESENTATION(
'ACS540R.375D2R060.0Z5_Basic-None',(#53,#54,#55),#321);
#24=SHAPE_DEFINITION_REPRESENTATION(#25,#34);
#25=PRODUCT_DEFINITION_SHAPE('','',#26);
#26=PRODUCT_DEFINITION(' ','',#28,#27);
#27=PRODUCT_DEFINITION_CONTEXT('part definition',#33,'design');
#28=PRODUCT_DEFINITION_FORMATION_WITH_SPECIFIED_SOURCE(' ',' ',#30,
 .NOT_KNOWN.);
#29=PRODUCT_RELATED_PRODUCT_CATEGORY('part','',(#30));
#30=PRODUCT('inpu1838D0B277xs','inpu1838D0B277xs',' ',(#31));
#31=PRODUCT_CONTEXT(' ',#33,'mechanical');
#32=APPLICATION_PROTOCOL_DEFINITION('international standard',
'automotive_design',2010,#33);
#33=APPLICATION_CONTEXT(
'core data for automotive mechanical design processes');
#34=SHAPE_REPRESENTATION('ACS540R.375D2R060.0Z5_Basic-None',(#199),#321);
#35=GEOMETRIC_CURVE_SET('None',(#269,#270,#271,#272,#162));
#36=TOROIDAL_SURFACE('',#218,3.23829158984413,1.524);
#37=VERTEX_LOOP('',#135);
#38=SURFACE_STYLE_USAGE(.BOTH.,#41);
#39=SURFACE_STYLE_USAGE(.BOTH.,#42);
#40=SURFACE_STYLE_USAGE(.BOTH.,#43);
#41=SURFACE_SIDE_STYLE('',(#44));
#42=SURFACE_SIDE_STYLE('',(#45));
#43=SURFACE_SIDE_STYLE('',(#46));
#44=SURFACE_STYLE_FILL_AREA(#47);
#45=SURFACE_STYLE_FILL_AREA(#48);
#46=SURFACE_STYLE_FILL_AREA(#49);
#47=FILL_AREA_STYLE('',(#50));
#48=FILL_AREA_STYLE('',(#51));
#49=FILL_AREA_STYLE('',(#52));
#50=FILL_AREA_STYLE_COLOUR('',#197);
#51=FILL_AREA_STYLE_COLOUR('',#197);
#52=FILL_AREA_STYLE_COLOUR('',#198);
#53=MANIFOLD_SOLID_BREP('NOCUT',#56);
#54=MANIFOLD_SOLID_BREP('NOCUT',#57);
#55=MANIFOLD_SOLID_BREP('CUT',#58);
#56=CLOSED_SHELL('',(#76,#77,#78,#79));
#57=CLOSED_SHELL('',(#80,#81,#82));
#58=CLOSED_SHELL('',(#83,#84,#85,#86));
#59=CYLINDRICAL_SURFACE('',#208,4.7625);
#60=CYLINDRICAL_SURFACE('',#212,4.7625);
#61=CONICAL_SURFACE('',#206,4.7625,45.0000000000007);
#62=CONICAL_SURFACE('',#216,1.76391848912521E-15,87.5);
#63=CONICAL_SURFACE('',#220,4.76249999419705,0.0100000000000331);
#64=FACE_BOUND('',#98,.T.);
#65=FACE_BOUND('',#99,.T.);
#66=FACE_BOUND('',#100,.T.);
#67=FACE_BOUND('',#101,.T.);
#68=FACE_BOUND('',#103,.T.);
#69=FACE_BOUND('',#104,.T.);
#70=FACE_BOUND('',#107,.T.);
#71=FACE_BOUND('',#37,.T.);
#72=FACE_BOUND('',#108,.T.);
#73=FACE_BOUND('',#109,.T.);
#74=FACE_BOUND('',#110,.T.);
#75=FACE_BOUND('',#111,.T.);
#76=ADVANCED_FACE('',(#92),#87,.T.);
#77=ADVANCED_FACE('',(#64,#65),#61,.T.);
#78=ADVANCED_FACE('',(#66,#67),#59,.T.);
#79=ADVANCED_FACE('',(#93),#88,.F.);
#80=ADVANCED_FACE('',(#68,#69),#60,.T.);
#81=ADVANCED_FACE('',(#94),#89,.T.);
#82=ADVANCED_FACE('',(#95),#90,.T.);
#83=ADVANCED_FACE('',(#70,#71),#62,.F.);
#84=ADVANCED_FACE('',(#72,#73),#36,.T.);
#85=ADVANCED_FACE('',(#74,#75),#63,.T.);
#86=ADVANCED_FACE('',(#96),#91,.F.);
#87=PLANE('',#204);
#88=PLANE('',#209);
#89=PLANE('',#213);
#90=PLANE('',#214);
#91=PLANE('',#221);
#92=FACE_OUTER_BOUND('',#97,.T.);
#93=FACE_OUTER_BOUND('',#102,.T.);
#94=FACE_OUTER_BOUND('',#105,.T.);
#95=FACE_OUTER_BOUND('',#106,.T.);
#96=FACE_OUTER_BOUND('',#112,.T.);
#97=EDGE_LOOP('',(#113));
#98=EDGE_LOOP('',(#114));
#99=EDGE_LOOP('',(#115));
#100=EDGE_LOOP('',(#116));
#101=EDGE_LOOP('',(#117));
#102=EDGE_LOOP('',(#118));
#103=EDGE_LOOP('',(#119));
#104=EDGE_LOOP('',(#120));
#105=EDGE_LOOP('',(#121));
#106=EDGE_LOOP('',(#122));
#107=EDGE_LOOP('',(#123));
#108=EDGE_LOOP('',(#124));
#109=EDGE_LOOP('',(#125));
#110=EDGE_LOOP('',(#126));
#111=EDGE_LOOP('',(#127));
#112=EDGE_LOOP('',(#128));
#113=ORIENTED_EDGE('',*,*,#138,.F.);
#114=ORIENTED_EDGE('',*,*,#138,.T.);
#115=ORIENTED_EDGE('',*,*,#139,.F.);
#116=ORIENTED_EDGE('',*,*,#140,.T.);
#117=ORIENTED_EDGE('',*,*,#139,.T.);
#118=ORIENTED_EDGE('',*,*,#140,.F.);
#119=ORIENTED_EDGE('',*,*,#141,.F.);
#120=ORIENTED_EDGE('',*,*,#142,.T.);
#121=ORIENTED_EDGE('',*,*,#141,.T.);
#122=ORIENTED_EDGE('',*,*,#142,.F.);
#123=ORIENTED_EDGE('',*,*,#143,.T.);
#124=ORIENTED_EDGE('',*,*,#144,.T.);
#125=ORIENTED_EDGE('',*,*,#143,.F.);
#126=ORIENTED_EDGE('',*,*,#145,.T.);
#127=ORIENTED_EDGE('',*,*,#144,.F.);
#128=ORIENTED_EDGE('',*,*,#145,.F.);
#129=VERTEX_POINT('',#293);
#130=VERTEX_POINT('',#296);
#131=VERTEX_POINT('',#299);
#132=VERTEX_POINT('',#303);
#133=VERTEX_POINT('',#305);
#134=VERTEX_POINT('',#310);
#135=VERTEX_POINT('',#311);
#136=VERTEX_POINT('',#314);
#137=VERTEX_POINT('',#317);
#138=EDGE_CURVE('',#129,#129,#146,.T.);
#139=EDGE_CURVE('',#130,#130,#147,.T.);
#140=EDGE_CURVE('',#131,#131,#148,.T.);
#141=EDGE_CURVE('',#132,#132,#149,.T.);
#142=EDGE_CURVE('',#133,#133,#150,.T.);
#143=EDGE_CURVE('',#134,#134,#151,.T.);
#144=EDGE_CURVE('',#136,#136,#152,.T.);
#145=EDGE_CURVE('',#137,#137,#153,.T.);
#146=CIRCLE('',#203,4.45769999999999);
#147=CIRCLE('',#205,4.7625);
#148=CIRCLE('',#207,4.7625);
#149=CIRCLE('',#210,4.7625);
#150=CIRCLE('',#211,4.7625);
#151=CIRCLE('',#215,3.17181564349936);
#152=CIRCLE('',#217,4.76229156663228);
#153=CIRCLE('',#219,4.75924165058933);
#154=CURVE_STYLE('',#158,POSITIVE_LENGTH_MEASURE(0.18),#196);
#155=CURVE_STYLE('',#159,POSITIVE_LENGTH_MEASURE(0.18),#195);
#156=CURVE_STYLE('',#160,POSITIVE_LENGTH_MEASURE(0.18),#195);
#157=CURVE_STYLE('',#161,POSITIVE_LENGTH_MEASURE(0.18),#195);
#158=DRAUGHTING_PRE_DEFINED_CURVE_FONT('continuous');
#159=DRAUGHTING_PRE_DEFINED_CURVE_FONT('continuous');
#160=DRAUGHTING_PRE_DEFINED_CURVE_FONT('continuous');
#161=DRAUGHTING_PRE_DEFINED_CURVE_FONT('continuous');
#162=TRIMMED_CURVE('',#163,(PARAMETER_VALUE(0.)),(PARAMETER_VALUE(1.)),
 .T.,.PARAMETER.);
#163=(
BOUNDED_CURVE()
B_SPLINE_CURVE(3,(#273,#274,#275,#276,#277,#278,#279,#280,#281,#282,#283,
#284,#285,#286,#287,#288),.UNSPECIFIED.,.T.,.F.)
B_SPLINE_CURVE_WITH_KNOTS((4,3,3,3,3,4),(0.,0.373962797306851,0.426621347307289,
0.494563509913084,0.898151265445624,1.),.UNSPECIFIED.)
CURVE()
GEOMETRIC_REPRESENTATION_ITEM()
RATIONAL_B_SPLINE_CURVE((1.,1.,1.,1.,0.79430001000149,0.79430001000149,
1.,1.,1.,1.,1.,1.,1.,1.,1.,1.))
REPRESENTATION_ITEM('')
);
#164=PRESENTATION_LAYER_ASSIGNMENT('1','Layer 1',(#269,#270,#271,#272,#162,
#200,#201,#202,#53,#54,#55));
#165=STYLED_ITEM('',(#176),#269);
#166=STYLED_ITEM('',(#177),#270);
#167=STYLED_ITEM('',(#178),#271);
#168=STYLED_ITEM('',(#179),#272);
#169=STYLED_ITEM('',(#180),#162);
#170=STYLED_ITEM('',(#181),#200);
#171=STYLED_ITEM('',(#182),#201);
#172=STYLED_ITEM('',(#183),#202);
#173=STYLED_ITEM('',(#184),#53);
#174=STYLED_ITEM('',(#185),#54);
#175=STYLED_ITEM('',(#186),#55);
#176=PRESENTATION_STYLE_ASSIGNMENT((#187));
#177=PRESENTATION_STYLE_ASSIGNMENT((#188));
#178=PRESENTATION_STYLE_ASSIGNMENT((#189));
#179=PRESENTATION_STYLE_ASSIGNMENT((#190));
#180=PRESENTATION_STYLE_ASSIGNMENT((#154));
#181=PRESENTATION_STYLE_ASSIGNMENT((#155));
#182=PRESENTATION_STYLE_ASSIGNMENT((#156));
#183=PRESENTATION_STYLE_ASSIGNMENT((#157));
#184=PRESENTATION_STYLE_ASSIGNMENT((#38));
#185=PRESENTATION_STYLE_ASSIGNMENT((#39));
#186=PRESENTATION_STYLE_ASSIGNMENT((#40));
#187=POINT_STYLE('',#191,POSITIVE_LENGTH_MEASURE(3.),#195);
#188=POINT_STYLE('',#192,POSITIVE_LENGTH_MEASURE(3.),#195);
#189=POINT_STYLE('',#193,POSITIVE_LENGTH_MEASURE(3.),#195);
#190=POINT_STYLE('',#194,POSITIVE_LENGTH_MEASURE(3.),#196);
#191=PRE_DEFINED_POINT_MARKER_SYMBOL('plus');
#192=PRE_DEFINED_POINT_MARKER_SYMBOL('plus');
#193=PRE_DEFINED_POINT_MARKER_SYMBOL('plus');
#194=PRE_DEFINED_POINT_MARKER_SYMBOL('plus');
#195=COLOUR_RGB('Pale Maroon',0.811749446860456,0.603921568627451,0.611749446860456);
#196=COLOUR_RGB('Medium Royal',0.2,0.4,0.8);
#197=COLOUR_RGB('Medium Gray',0.490196078431373,0.490196078431373,0.490196078431373);
#198=COLOUR_RGB('Light Gray',0.8,0.8,0.8);
#199=AXIS2_PLACEMENT_3D('',#268,#222,#223);
#200=AXIS2_PLACEMENT_3D('PCS',#289,#224,#225);
#201=AXIS2_PLACEMENT_3D('MCS',#290,#226,#227);
#202=AXIS2_PLACEMENT_3D('CIP',#291,#228,#229);
#203=AXIS2_PLACEMENT_3D('',#292,#230,#231);
#204=AXIS2_PLACEMENT_3D('',#294,#232,#233);
#205=AXIS2_PLACEMENT_3D('',#295,#234,#235);
#206=AXIS2_PLACEMENT_3D('',#297,#236,#237);
#207=AXIS2_PLACEMENT_3D('',#298,#238,#239);
#208=AXIS2_PLACEMENT_3D('',#300,#240,#241);
#209=AXIS2_PLACEMENT_3D('',#301,#242,#243);
#210=AXIS2_PLACEMENT_3D('',#302,#244,#245);
#211=AXIS2_PLACEMENT_3D('',#304,#246,#247);
#212=AXIS2_PLACEMENT_3D('',#306,#248,#249);
#213=AXIS2_PLACEMENT_3D('',#307,#250,#251);
#214=AXIS2_PLACEMENT_3D('',#308,#252,#253);
#215=AXIS2_PLACEMENT_3D('',#309,#254,#255);
#216=AXIS2_PLACEMENT_3D('',#312,#256,#257);
#217=AXIS2_PLACEMENT_3D('',#313,#258,#259);
#218=AXIS2_PLACEMENT_3D('',#315,#260,#261);
#219=AXIS2_PLACEMENT_3D('',#316,#262,#263);
#220=AXIS2_PLACEMENT_3D('',#318,#264,#265);
#221=AXIS2_PLACEMENT_3D('',#319,#266,#267);
#222=DIRECTION('',(0.,0.,1.));
#223=DIRECTION('',(1.,0.,0.));
#224=DIRECTION('',(0.,0.,1.));
#225=DIRECTION('',(1.,0.,0.));
#226=DIRECTION('',(0.,0.,1.));
#227=DIRECTION('',(1.,0.,0.));
#228=DIRECTION('',(0.,0.,1.));
#229=DIRECTION('',(1.,0.,0.));
#230=DIRECTION('',(0.,0.,-1.));
#231=DIRECTION('',(-1.,0.,0.));
#232=DIRECTION('',(0.,0.,1.));
#233=DIRECTION('',(-1.,0.,0.));
#234=DIRECTION('',(0.,0.,-1.));
#235=DIRECTION('',(-1.,0.,0.));
#236=DIRECTION('',(0.,0.,-1.));
#237=DIRECTION('',(1.,0.,2.071801217872E-17));
#238=DIRECTION('',(0.,0.,1.));
#239=DIRECTION('',(1.,0.,0.));
#240=DIRECTION('',(0.,0.,-1.));
#241=DIRECTION('',(1.,0.,0.));
#242=DIRECTION('',(0.,0.,1.));
#243=DIRECTION('',(-1.,0.,0.));
#244=DIRECTION('',(0.,0.,-1.));
#245=DIRECTION('',(-1.,0.,0.));
#246=DIRECTION('',(0.,0.,-1.));
#247=DIRECTION('',(1.,0.,0.));
#248=DIRECTION('',(0.,0.,-1.));
#249=DIRECTION('',(1.,0.,0.));
#250=DIRECTION('',(0.,0.,-1.));
#251=DIRECTION('',(1.,0.,0.));
#252=DIRECTION('',(0.,0.,1.));
#253=DIRECTION('',(-1.,0.,0.));
#254=DIRECTION('',(0.,0.,-1.));
#255=DIRECTION('',(-1.,0.,0.));
#256=DIRECTION('',(0.,0.,-1.));
#257=DIRECTION('',(1.,0.,2.87810718057382E-18));
#258=DIRECTION('',(0.,0.,-1.));
#259=DIRECTION('',(1.,0.,0.));
#260=DIRECTION('',(0.,0.,-1.));
#261=DIRECTION('',(-1.,0.,0.));
#262=DIRECTION('',(0.,0.,-1.));
#263=DIRECTION('',(-1.,0.,0.));
#264=DIRECTION('',(0.,0.,-1.));
#265=DIRECTION('',(1.,0.,1.96766997923308E-14));
#266=DIRECTION('',(0.,0.,-1.));
#267=DIRECTION('',(1.,0.,0.));
#268=CARTESIAN_POINT('',(0.,0.,0.));
#269=CARTESIAN_POINT('',(0.,0.,39.675));
#270=CARTESIAN_POINT('',(0.,0.,0.));
#271=CARTESIAN_POINT('',(0.,0.,-23.825));
#272=CARTESIAN_POINT('CRP',(-4.7625,0.,-23.825));
#273=CARTESIAN_POINT('',(-4.75924165058933,0.,-4.77500000000219));
#274=CARTESIAN_POINT('',(-4.76025828927031,0.,-10.5999105118547));
#275=CARTESIAN_POINT('',(-4.7612749279513,0.,-16.4248210237072));
#276=CARTESIAN_POINT('',(-4.76229156663229,0.,-22.2497315355579));
#277=CARTESIAN_POINT('',(-4.76245284601564,0.,-23.173794325017));
#278=CARTESIAN_POINT('',(-4.09499894400116,0.,-23.812854066798));
#279=CARTESIAN_POINT('',(-3.17181564349936,0.,-23.7725470134207));
#280=CARTESIAN_POINT('',(-2.11454376233291,0.,-23.7263855261784));
#281=CARTESIAN_POINT('',(-1.05727188116645,0.,-23.680224038936));
#282=CARTESIAN_POINT('',(-8.88178419700125E-16,0.,-23.6340625516936));
#283=CARTESIAN_POINT('',(0.,0.,-17.3477083677957));
#284=CARTESIAN_POINT('',(0.,0.,-11.0613541838979));
#285=CARTESIAN_POINT('',(0.,0.,-4.775));
#286=CARTESIAN_POINT('',(-1.58641388352978,0.,-4.775));
#287=CARTESIAN_POINT('',(-3.17282776705955,0.,-4.775));
#288=CARTESIAN_POINT('',(-4.75924165058933,0.,-4.775));
#289=CARTESIAN_POINT('',(0.,0.,39.675));
#290=CARTESIAN_POINT('',(0.,0.,0.));
#291=CARTESIAN_POINT('',(0.,0.,-23.825));
#292=CARTESIAN_POINT('',(0.,0.,39.675));
#293=CARTESIAN_POINT('',(-4.45769999999999,0.,39.675));
#294=CARTESIAN_POINT('',(4.45769999999999,0.,39.675));
#295=CARTESIAN_POINT('',(0.,0.,39.3702));
#296=CARTESIAN_POINT('',(-4.7625,0.,39.3702));
#297=CARTESIAN_POINT('',(0.,0.,39.3702));
#298=CARTESIAN_POINT('',(0.,0.,0.));
#299=CARTESIAN_POINT('',(4.7625,0.,0.));
#300=CARTESIAN_POINT('',(0.,0.,0.));
#301=CARTESIAN_POINT('',(0.,0.,0.));
#302=CARTESIAN_POINT('',(0.,0.,-4.77500000000001));
#303=CARTESIAN_POINT('',(-4.7625,0.,-4.77500000000001));
#304=CARTESIAN_POINT('',(0.,0.,0.));
#305=CARTESIAN_POINT('',(4.7625,0.,0.));
#306=CARTESIAN_POINT('',(0.,0.,0.));
#307=CARTESIAN_POINT('',(4.75924165058933,0.,-4.77500000000001));
#308=CARTESIAN_POINT('',(0.,0.,0.));
#309=CARTESIAN_POINT('',(0.,0.,-23.7725470134208));
#310=CARTESIAN_POINT('',(-3.17181564349936,0.,-23.7725470134208));
#311=CARTESIAN_POINT('',(-1.76391848912521E-15,0.,-23.6340625516936));
#312=CARTESIAN_POINT('',(0.,0.,-23.6340625516936));
#313=CARTESIAN_POINT('',(0.,0.,-22.2497315355561));
#314=CARTESIAN_POINT('',(-4.76229156663228,0.,-22.2497315355561));
#315=CARTESIAN_POINT('',(0.,0.,-22.24999752373));
#316=CARTESIAN_POINT('',(0.,0.,-4.77500000000001));
#317=CARTESIAN_POINT('',(-4.75924165058933,0.,-4.77500000000001));
#318=CARTESIAN_POINT('',(0.,0.,-23.4439335029558));
#319=CARTESIAN_POINT('',(0.,0.,-4.775));
#320=MECHANICAL_DESIGN_GEOMETRIC_PRESENTATION_REPRESENTATION('',(#165,#166,
#167,#168,#169,#170,#171,#172,#173,#174,#175),#321);
#321=(
GEOMETRIC_REPRESENTATION_CONTEXT(3)
GLOBAL_UNCERTAINTY_ASSIGNED_CONTEXT((#322))
GLOBAL_UNIT_ASSIGNED_CONTEXT((#328,#324,#323))
REPRESENTATION_CONTEXT('ACS540R.375D2R060','TOP_LEVEL_ASSEMBLY_PART')
);
#322=UNCERTAINTY_MEASURE_WITH_UNIT(LENGTH_MEASURE(2.E-5),#328,
'DISTANCE_ACCURACY_VALUE','Maximum Tolerance applied to model');
#323=(
NAMED_UNIT(*)
SI_UNIT($,.STERADIAN.)
SOLID_ANGLE_UNIT()
);
#324=(
CONVERSION_BASED_UNIT('DEGREE',#326)
NAMED_UNIT(#325)
PLANE_ANGLE_UNIT()
);
#325=DIMENSIONAL_EXPONENTS(0.,0.,0.,0.,0.,0.,0.);
#326=PLANE_ANGLE_MEASURE_WITH_UNIT(PLANE_ANGLE_MEASURE(0.0174532925),#327);
#327=(
NAMED_UNIT(*)
PLANE_ANGLE_UNIT()
SI_UNIT($,.RADIAN.)
);
#328=(
LENGTH_UNIT()
NAMED_UNIT(*)
SI_UNIT(.MILLI.,.METRE.)
);
ENDSEC;
END-ISO-10303-21;
